Song name
# A B C D E F G H I J K L M N O P Q R S T U V W X Y Z

Editors - Papillon Acoustic tab

My own version for papillon. It's a kinda mix of the acoustic and the original version.
Sounds really good. A bit fingerstyle, I guess.


Verse:

  Make our escape.    You're my own...  
                              

|---------------------------------------|
|-------0-------0-----------0------0----|
|-----0-----------0-------0----------0--|
|---------------------------------------|
|---7--------7---------5---------9------|
|-0--------0---------3---------7--------|


Chorus:
Play it 3x!
   Darling...

|--------------------------------------------------------------------|
|--------1-----1---------0-----0----------3-----3---------0-----0----|
|------0---------0-----0---------0------0---------0-----0---------0--|
|----2-------2-------2-------0--------4-------4-------4-------0------|
|--3-------3-------3-------2--------5-------5-------5-------2--------|
|--------------------------------------------------------------------|

At the end of the chorus(last 2 lines/Well that's quite enough... somehow./):
Play it 1x!

|--------------------------------------------------------------------|
|--------1-----1---------0-----0----------3-----3---------3-----3----|
|------0---------0-----0---------0------0---------0-----0---------0--|
|----2-------2-------2-------0--------4-------4-------4-------4------|
|--3-------3-------3-------2--------5-------5-------5-------5--------|
|--------------------------------------------------------------------|

Have fun!
David
Tap to rate this tab
# A B C D E F G H I J K L M N O P Q R S T U V W X Y Z