Song name
# A B C D E F G H I J K L M N O P Q R S T U V W X Y Z

Editors - A Life As A Ghost tab

-----------------------------------------------------------------------------
                        A life as a ghost - Editors
-----------------------------------------------------------------------------
Tabbed by: Bart de Jong
Email: bdejong30@hotmail.com


verse:

synth:
e|--------------------------|-------------------------------|
B|--------------------------|-------------------------------|
G|--------------------------|-------------------------------|
D|--------------------------|-------------------------------|
A|--------------------------|-------------------------------|
E|5-5-5--5--5--5-5-5--5--5--|8-8-8--8--8--10-10-10--10--10--|

riff:
e|--------|--------|
B|--------|--------|
G|--------|--------|
D|--------|--------|
A|-----3--|-----5--|
E|3-5-----|3-5-----|

chorus:

synth:
e||--------------|----------|--------------|----------|
B||--------------|----------|--------------|----------|
G||4-------------|----------|4-------------|----------|
D||---7-5-4--4-5-|--4-7-----|---7-5-4--4-5-|--4-7-5---|
A||--------------|7-----7---|--------------|7---------|
E||--------------|----------|--------------|----------|

bridge:

guitar:
e|--------------------------|--------------------------|
B|--------------------------|--------------------------|
G|--------------------------|--------------------------|
D|--------------------------|--------------------------|
A|7-7-7-7-7-7---------------|7-7-7-7-7-7---------------|
E|--------------------------|--------------------------|

bass:
G|--------------------------|--------------------------|
D|--------------------------|--------------------------|
A|--------------5-5-7-7-----|--------------3-3-5-5-----|
E|--------------------------|--------------------------|

outro: (same as verse, with some added synths)

synth riff (very quiet):
e|---------------------------------|
B|---------------------------------|
G|-9-9-9-9-9-7-7-7-7---------------|
D|-------------------9-9-9-9-7-7-7-|
A|---------------------------------|
E|---------------------------------|
Tap to rate this tab
 
# A B C D E F G H I J K L M N O P Q R S T U V W X Y Z