Song name
# A B C D E F G H I J K L M N O P Q R S T U V W X Y Z

Editors - Fall tab

-----------------------------------------------------------------------------
			     Fall - Editors
-----------------------------------------------------------------------------
Tabbed by: Ross Adamson

Intro/Verse:

(Tom):

C Em

(Chris):

e|-8-8-8-8-8-8-8-8-8-8-------------------------------------------------------|
B|----------------------7-5-5------------------------------------------------|
G|---------------------------------------------------------------------------|
D|---------------------------------------------------------------------------|
A|---------------------------------------------------------------------------|
E|---------------------------------------------------------------------------|

Chorus:

(Tom)

Em G C

(Chris)                                       (Repeat)

e|-7-7-7-7-7-7-7-7-7-7-5-7-7-7-7-7-7-7-7-7-5---------------------------------|
B|---------------------------------------------------------------------------|
G|---------------------------------------------------------------------------|
D|---------------------------------------------------------------------------|
A|---------------------------------------------------------------------------|
E|---------------------------------------------------------------------------|

Outro

(Chris - at around 3:45)

e|---------------------------------------------------------------------------|
B|-7-7-7-7-7-7-7-7-7-7-5-5-5-5-5-5-5-5---------------------------------------|
G|---------------------------------------------------------------------------|
D|---------------------------------------------------------------------------|
A|---------------------------------------------------------------------------|
E|---------------------------------------------------------------------------|

(Repeat as necessary)

(at around 4:25)

e|-12-12-12-12-12-12-12-11-12-12-12-12-12-12-11------------------------------|
B|---------------------------------------------------------------------------|
G|---------------------------------------------------------------------------|
D|---------------------------------------------------------------------------|
A|---------------------------------------------------------------------------|
E|---------------------------------------------------------------------------|

These two last parts are played until the end of the song.
Tap to rate this tab
 
# A B C D E F G H I J K L M N O P Q R S T U V W X Y Z