Song name
# A B C D E F G H I J K L M N O P Q R S T U V W X Y Z

Editors - Lights chords

Highlighted       Show chord diagrams
THIS IS TAKEN FROM WHAT I CAN SEE IN THIS VIDEO
http://www.youtube.com/watch?v=Tm9yRbFT0Bw&feature=related
AND THE ALBUM VERSION

I'VE ALSO TRIED TO FIT THE LYRICS WITH THE TAB

Verse1=
   Em       F#      Bm     C
e|-------|-------|-------|-------|
B|-------|-------|-------|-------|
G|-------|-------|2-2-2-2|0-0-0-0|
D|5-5-5-5|7-7-7-7|0-0-0-0|2-2-2-2|
A|7-7-7-7|9-9-9-9|2-2-2-2|3-3-3-3|
E|-------|-------|-------|-------|

   Em       F#      Bm     C
e|-------|-------|-------|-------|
B|-------|-------|-------|-------|
G|-------|-------|2-2-2-2|0-0-0-0|
D|5-5-5-5|7-7-7-7|0-0-0-0|2-2-2-2|
A|7-7-7-7|9-9-9-9|2-2-2-2|3-3-3-3|
E|-------|-------|-------|-------|

   Em       F#      Bm     C
e|-------|-------|-------|-------|
B|-------|-------|-------|-------|
G|-------|-------|2-2-2-2|0-0-0-0|
D|5-5-5-5|7-7-7-7|0-0-0-0|2-2-2-2|
A|7-7-7-7|9-9-9-9|2-2-2-2|3-3-3-3|
E|-------|-------|-------|-------|


    Em       F#      Bm     C
e|-------|-------|-------|-------|
B|-------|-------|-------|-------|
G|-------|-------|2-2-2-2|0-0-0-0|
D|5-5-5-5|7-7-7-7|0-0-0-0|2-2-2-2|
A|7-7-7-7|9-9-9-9|2-2-2-2|3-3-3-3|
E|-------|-------|-------|-------|

CHORUS=
   D/A       C       D/A     C
e|-------|-------|-------|-------|
B|3-3-3-3|-------|3-3-3-3|-------|
G|0-0-0-0|0-0-0-0|0-0-0-0|0-0-0-0|
D|4-4-4-4|2-2-2-2|4-4-4-4|2-2-2-2|
A|5-5-5-5|3-3-3-3|5-5-5-5|3-3-3-3|
E|5-5-5-5|-------|5-5-5-5|-------|

  D/A       C       D/A       Em
e|-------|-------|-------|-------|
B|3-3-3-3|-------|3-3-3-3|-------|
G|0-0-0-0|0-0-0-0|0-0-0-0|-------|
D|4-4-4-4|2-2-2-2|4-4-4-4|5-5-5-5|
A|5-5-5-5|3-3-3-3|5-5-5-5|7-7-7-7|
E|5-5-5-5|-------|5-5-5-5|-------|

FILL IN=
   Em       F#      Bm     C
e|-------|-------|-------|-------|
B|-------|-------|-------|-------|
G|-------|-------|2-2-2-2|0-0-0-0|
D|5-5-5-5|7-7-7-7|0-0-0-0|2-2-2-2|
A|7-7-7-7|9-9-9-9|2-2-2-2|3-3-3-3|
E|-------|-------|-------|-------|

   Em       F#      Bm     C
e|-------|-------|-------|-------|
B|-------|-------|-------|-------|
G|-------|-------|2-2-2-2|0-0-0-0|
D|5-5-5-5|7-7-7-7|0-0-0-0|2-2-2-2|
A|7-7-7-7|9-9-9-9|2-2-2-2|3-3-3-3|
E|-------|-------|-------|-------|

   Em       F#      Bm     C
e|-------|-------|-------|-------|
B|-------|-------|-------|-------|
G|-------|-------|2-2-2-2|0-0-0-0|
D|5-5-5-5|7-7-7-7|0-0-0-0|2-2-2-2|
A|7-7-7-7|9-9-9-9|2-2-2-2|3-3-3-3|
E|-------|-------|-------|-------|


    Em       F#      Bm     C
e|-------|-------|-------|-------|
B|-------|-------|-------|-------|
G|-------|-------|2-2-2-2|0-0-0-0|
D|5-5-5-5|7-7-7-7|0-0-0-0|2-2-2-2|
A|7-7-7-7|9-9-9-9|2-2-2-2|3-3-3-3|
E|-------|-------|-------|-------|

VERSE2=
 Em       F#      Bm     C
e|-------|-------|-------|-------|
B|-------|-------|-------|-------|
G|-------|-------|2-2-2-2|0-0-0-0|
D|5-5-5-5|7-7-7-7|0-0-0-0|2-2-2-2|
A|7-7-7-7|9-9-9-9|2-2-2-2|3-3-3-3|
E|-------|-------|-------|-------|

   Em       F#      Bm     C
e|-------|-------|-------|-------|
B|-------|-------|-------|-------|
G|-------|-------|2-2-2-2|0-0-0-0|
D|5-5-5-5|7-7-7-7|0-0-0-0|2-2-2-2|
A|7-7-7-7|9-9-9-9|2-2-2-2|3-3-3-3|
E|-------|-------|-------|-------|

   Em       F#      Bm     C
e|-------|-------|-------|-------|
B|-------|-------|-------|-------|
G|-------|-------|2-2-2-2|0-0-0-0|
D|5-5-5-5|7-7-7-7|0-0-0-0|2-2-2-2|
A|7-7-7-7|9-9-9-9|2-2-2-2|3-3-3-3|
E|-------|-------|-------|-------|


    Em       F#      Bm     C
e|-------|-------|-------|-------|
B|-------|-------|-------|-------|
G|-------|-------|2-2-2-2|0-0-0-0|
D|5-5-5-5|7-7-7-7|0-0-0-0|2-2-2-2|
A|7-7-7-7|9-9-9-9|2-2-2-2|3-3-3-3|
E|-------|-------|-------|-------|

CHORUS=
   D/A       C       D/A     C
e|-------|-------|-------|-------|
B|3-3-3-3|-------|3-3-3-3|-------|
G|0-0-0-0|0-0-0-0|0-0-0-0|0-0-0-0|
D|4-4-4-4|2-2-2-2|4-4-4-4|2-2-2-2|
A|5-5-5-5|3-3-3-3|5-5-5-5|3-3-3-3|
E|5-5-5-5|-------|5-5-5-5|-------|

  D/A       C       D/A       Em
e|-------|-------|-------|-------|
B|3-3-3-3|-------|3-3-3-3|-------|
G|0-0-0-0|0-0-0-0|0-0-0-0|-------|
D|4-4-4-4|2-2-2-2|4-4-4-4|5-5-5-5|
A|5-5-5-5|3-3-3-3|5-5-5-5|7-7-7-7|
E|5-5-5-5|-------|5-5-5-5|-------|

MIDDLE 12
e|-------|-------|--------|-------|
B|-------|-------|--------|-------|
G|-------|-------|2-------|0------|
D|5------|7------|0-------|2------|
A|7------|9------|2-------|3------|
E|-------|-------|--------|-------|


e|-------|-------|--------|-------|
B|-------|-------|--------|-------|
G|-------|-------|2-------|0------|
D|5------|7------|0-------|2------|
A|7------|9------|2-------|3------|
E|-------|-------|--------|-------|

  E                                   Em
e|-----------|-----------|-----------|-------|
B|-----------|-----------|-----------|-------|
G|12-12-12-12|12-12-12-12|12-12-12-12|-------|
D|12-12-12-12|12-12-12-12|12-12-12-12|5-5-5-5|
A|12-12-12-12|12-12-12-12|12-12-12-12|7-7-7-7|
E|12-12-12-12|12-12-12-12|12-12-12-12|-------|

FILL IN=
   Em       F#      Bm     C
e|-------|-------|-------|-------|
B|-------|-------|-------|-------|
G|-------|-------|2-2-2-2|0-0-0-0|
D|5-5-5-5|7-7-7-7|0-0-0-0|2-2-2-2|
A|7-7-7-7|9-9-9-9|2-2-2-2|3-3-3-3|
E|-------|-------|-------|-------|

   Em       F#      Bm     C
e|-------|-------|-------|-------|
B|-------|-------|-------|-------|
G|-------|-------|2-2-2-2|0-0-0-0|
D|5-5-5-5|7-7-7-7|0-0-0-0|2-2-2-2|
A|7-7-7-7|9-9-9-9|2-2-2-2|3-3-3-3|
E|-------|-------|-------|-------|

   Em       F#      Bm     C
e|-------|-------|-------|-------|
B|-------|-------|-------|-------|
G|-------|-------|2-2-2-2|0-0-0-0|
D|5-5-5-5|7-7-7-7|0-0-0-0|2-2-2-2|
A|7-7-7-7|9-9-9-9|2-2-2-2|3-3-3-3|
E|-------|-------|-------|-------|


    Em       F#      Bm     C
e|-------|-------|-------|-------|
B|-------|-------|-------|-------|
G|-------|-------|2-2-2-2|0-0-0-0|
D|5-5-5-5|7-7-7-7|0-0-0-0|2-2-2-2|
A|7-7-7-7|9-9-9-9|2-2-2-2|3-3-3-3|
E|-------|-------|-------|-------|

CHORUS=
   D/A       C       D/A     C
e|-------|-------|-------|-------|
B|3-3-3-3|-------|3-3-3-3|-------|
G|0-0-0-0|0-0-0-0|0-0-0-0|0-0-0-0|
D|4-4-4-4|2-2-2-2|4-4-4-4|2-2-2-2|
A|5-5-5-5|3-3-3-3|5-5-5-5|3-3-3-3|
E|5-5-5-5|-------|5-5-5-5|-------|

  D/A       C       D/A       Em
e|-------|-------|-------|-------|
B|3-3-3-3|-------|3-3-3-3|-------|
G|0-0-0-0|0-0-0-0|0-0-0-0|-------|
D|4-4-4-4|2-2-2-2|4-4-4-4|5-5-5-5|
A|5-5-5-5|3-3-3-3|5-5-5-5|7-7-7-7|
E|5-5-5-5|-------|5-5-5-5|-------|


LYRICS
VERSE1

Em       F#      Bm       C
I STILL LOVE THE LIGHT OH BABY

Em          F#       Bm       C
IT KEEPS ME AWAKE BUT I DON'T MIND

Em   F#         Bm     C
EVERYTHING I'VE ALWAYS WANTED

Em       F#       Bm      C
IS RIGHT HERE BUT SOON IT WON'T BE

CHORUS
D/A       C                      D/A           C                   D/A
aaahhhh   IF FORTUNE FAVOURS THE BRAVE I AM AS POOR A FOOL AS THEY COME
        C                             D/A             Em
I GOT A MILLION THINGS TO SAY I GOT A MILLION THINGS TO

(FILL IN)

VERSE2
Em       F#      Bm       C
I STILL LOVE THE LIGHT OH BABY

Em          F#       Bm       C
IT KEEPS ME AWAKE BUT I DON'T MIND

Em   F#         Bm     C
EVERYTHING I'VE ALWAYS WANTED

Em       F#       Bm      C
IS RIGHT HERE BUT SOON IT WON'T BE

CHORUS
D/A       C                      D/A           C                   D/A
aaahhhh   IF FORTUNE FAVOURS THE BRAVE I AM AS POOR A FOOL AS THEY COME
        C                             D/A
I GOT A MILLION THINGS TO SAY I GOT A MILLION THINGS TO

MIDDLE 12 (REST FOR 8 BARS THEN):
E
I STILL LOVE THE LIGHT OH BABY
E
I STILL LOVE THE LIGHT OH BABY
E
I STILL LOVE THE LIGHT OH BABY

(FILL IN)

CHORUS
D/A       C                      D/A           C                   D/A
aaahhhh   IF FORTUNE FAVOURS THE BRAVE I AM AS POOR A FOOL AS THEY COME
        C                 D/A            Em
I GOT A MILLION THINGS TO SAY I GOT A MILLION THINGS TO

D/A       C                      D/A           C                   D/A
aaahhhh   IF FORTUNE FAVOURS THE BRAVE I AM AS POOR A FOOL AS THEY COME
        C                 D/A            Em
I GOT A MILLION THINGS TO SAY I GOT A MILLION THINGS TO

(by the way please feel free to comment or rate this or my other tabs which are IN THIS 
AND ON THIS EVENING BY EDITORS and ROCK AND ROLL PRETTY BOYS BY 12 DIRTY BULLETS)
Tap to rate this tab
 
# A B C D E F G H I J K L M N O P Q R S T U V W X Y Z