Song name
# A B C D E F G H I J K L M N O P Q R S T U V W X Y Z

Editors - Escape The Nest tab

the original chords for this song didn't sound quite right somehow, so here is my 
version which is sort of derived from this

http://www.youtube.com/watch?v=NMIufgqhD9c

ok here we go

INTRO=
  Am         C        F         C
e|------------------|------------------|
B|------------------|------------------|
G|------------------|------------------|
D|7-7-7-7-7-10-10-10|3-3-3-3-3-10-10-10|
A|7-7-7-7-7-10-10-10|3-3-3-3-3-10-10-10|
E|5-5-5-5-5-8--8--8-|1-1-1-1-1-8--8--8-|

VERSE= NO RHYTHYM GUITAR

PRE REFRAIN= let ring

e|-----------------|------------------|
B|-----------------|------------------|
G|-----------------|------------------|
D|12---------------|9-----------------|
A|12---------------|9-----------------|
E|10---------------|7-----------------|

REFRAIN=

e|---------------------|---------------------|
B|---------------------|---------------------|
G|---------------------|---------------------|
D|---------------------|---------------------|
A|0-0-0-0-0-0-0-0-0-2-2|3-3-3-3-3-3-3-3-3-5-5|
E|---------------------|---------------------|

e|---------------------|---------------------|
B|---------------------|---------------------|
G|---------------------|---------------------|
D|---------------------|---------------------|
A|---------------------|---------------------|
E|1-1-1-1-1-1-1-1-1-3-3|5-5-5-5-5-5-5-5-5-5-5|


leaD

MAINRIFF
e 15-15-15-15-15-12-12-12|-------------------------------------------|
B------------------------|16BU17-16BU17-16BU17-16BU17-16BU17---------|
G------------------------|-----------------------------------14-14-14|
D------------------------|-------------------------------------------|
A------------------------|-------------------------------------------|
E------------------------|-------------------------------------------|

CHORUS
e 17-17-17-17-19-17-20-17-20-20-19-19|
B------------------------------------|
G------------------------------------|
D------------------------------------|
A------------------------------------|
E------------------------------------|

e15-15-15-15-17-15-19-15-15-15-20-20-19-19|
B-----------------------------------------|
G-----------------------------------------|
D-----------------------------------------|
A-----------------------------------------|
E-----------------------------------------|

e 17-17-17-17-19-17-20-17-20-20-19-19|
B------------------------------------|
G------------------------------------|
D------------------------------------|
A------------------------------------|
E------------------------------------|

e---------------------------20-20-19-19|
B17-17-17-17-18-17-19-17-17------------|
G--------------------------------------|
D--------------------------------------|
A--------------------------------------|
E--------------------------------------|

e15-15-15-15-17-15-19-15-15-15-20-20-19-19|
B-----------------------------------------|
G-----------------------------------------|
D-----------------------------------------|
A-----------------------------------------|
E-----------------------------------------|

e 17-17-17-17-19-17-20-17-20-20-19-19|
B------------------------------------|
G------------------------------------|
D------------------------------------|
A------------------------------------|
E------------------------------------|

THEN BACK TO MAIN RIFF. ANYWAY HAVE FUN WHILST MAKING MUSIC AS SOMEONE MIGHT TAB 
SOMETHING YOU'VE CREATED ONE DAY
Tap to rate this tab
# A B C D E F G H I J K L M N O P Q R S T U V W X Y Z