Song name
# A B C D E F G H I J K L M N O P Q R S T U V W X Y Z

Editors - Dust In The Sunlight tab

INTRO:
E------------------------------------------------------------------|
B-5-5-5-5-5-5-2-1-0------2-0---------------------------------------|
G-------------------0-1------1-----4-4-4-4-4-4-4-4-2-2-2-2-2-2-2-2-|
D------------------------------2---4-4-4-4-4-4-4-4-2-2-2-2-2-2-2-2-|
A----------------------------------2-2-2-2-2-2-2-2-----------------|
E------------------------------------------------------------------|


(This is used throughout and is the main riff)
E-12-12-12-12-12-12-12-12----------------------|
B-------------------------2-1-0------2-0-------|
G-------------------------------0-1------1-----|
D------------------------------------------2---|
A----------------------------------------------|
E----------------------------------------------|


VERSES (also played over main riff) [Rhythm]:
E-----------------------------------------------------------------|
B-----------------------------------------------------------------|
G-1-1-1-1-1-1-1-1-6-6-6-6-6-6-6-6-4-4-4-4-4-4-4-4-2-2-2-2-2-2-2-2-|
D-2-2-2-2-2-2-2-2-6-6-6-6-6-6-6-6-4-4-4-4-4-4-4-4-2-2-2-2-2-2-2-2-|
A-2-2-2-2-2-2-2-2-4-4-4-4-4-4-4-4-2-2-2-2-2-2-2-2-----------------|
E-----------------------------------------------------------------|


Verses [Lead]:
E-12----9-7----5-2----4-0-|
B-------------------------|
G-------------------------|
D-------------------------|
A-------------------------|
E-------------------------|

BRDIGE [RHYTHM]
E---------------------------------|
B---------------------------------| REPEAT TIL THE END
G-4-4-4-4-4-4-4-4-2-2-2-2-2-2-2-2-|
D-4-4-4-4-4-4-4-4-2-2-2-2-2-2-2-2-|
A-2-2-2-2-2-2-2-2-----------------|
E---------------------------------|

Sorry I can't make out the lead in the end by ear.
Tap to rate this tab
 
# A B C D E F G H I J K L M N O P Q R S T U V W X Y Z