Song name
# A B C D E F G H I J K L M N O P Q R S T U V W X Y Z

Editors - Escape The Nest tab

Editors - Escape The Nest

Rythm Guitar

Intro
e|---------------|---------------|-----------------|------------------------|
B|---------------|---------------|-----------------|------------------------|
G|---------------|------9--9--9--|-----------------|------9--9--9-----------|
D|--7--7--7--7---|-7-7--x--x--x--|--3--3--3--3-----|-3-3--x--x--x-----------|2x
A|--7--7--7--7---|-7-7--7--7--7--|--3--3--3--3-----|-3-3--7--7--7-----------|
E|--5--5--5--5---|-5-5-----------|--1--1--1--1-----|-1-1--------------------|

Verse
e|---------------|---------------|-----------------|------------------------|
B|---------------|---------------|-----------------|------------------------|
G|---------------|------9--9--9--|-----------------|------9--9--9-----------|
D|--7--7--7--7---|-7-7--x--x--x--|--3--3--3--3-----|-3-3--x--x--x-----------|2x
A|--7--7--7--7---|-7-7--7--7--7--|--3--3--3--3-----|-3-3--7--7--7-----------|
E|--5--5--5--5---|-5-5-----------|--1--1--1--1-----|-1-1--------------------|

Chorus
|A     |A   B  |C     |C   D  |
|F     |F   G  |A     |A   B  |
|C     |C   D  |F     |F   G  |

e|---------------|---------------|-----------------|------------------------|
B|---------------|---------------|-----------------|------------------------|
G|---------------|------9--9--9--|-----------------|------9--9--9-----------|
D|--7--7--7--7---|-7-7--x--x--x--|--3--3--3--3-----|-3-3--x--x--x-----------|2x
A|--7--7--7--7---|-7-7--7--7--7--|--3--3--3--3-----|-3-3--7--7--7-----------|
E|--5--5--5--5---|-5-5-----------|--1--1--1--1-----|-1-1--------------------|


Bridge
|A     |A   B  |C     |C   D  |
|F     |F   G  |A     |A   B  |
|C     |C   D  |F     |F   G  |
|G     |G      |





Lead Guitar

Intro
e|--15-15-15-15--|15-15----------|-----------------|------------------------|
B|---------------|------17-17-17-|--/17-17-17-17---|-17-17------------------|
G|---------------|---------------|-----------------|------13-13-13\---------|
D|---------------|---------------|-----------------|------------------------|2x
A|---------------|---------------|-----------------|------------------------|
E|---------------|---------------|-----------------|------------------------|

Verse
e|---------------|---------------|-----------------|-----------------------|
B|---------------|---------------|-----------------|-----------------------|
G|9-9-9-9-9-9-9-9|7-7-7-7-7-7-7-7|-----------------|-----------------------|
D|---------------|---------------|10-10-7-7-7-7-7-7|---------------------7-|
A|---------------|---------------|-----------------|10-10-10-10-10-10-10---|
E|---------------|---------------|-----------------|-----------------------|

Chorus
e|-17----19-17-20-17-19-17----20--19--15----17-15-19-15-17-15----20--19----|
B|-------------------------------------------------------------------------|
G|-------------------------------------------------------------------------|
D|-------------------------------------------------------------------------|
A|-------------------------------------------------------------------------|
E|-------------------------------------------------------------------------|

e|-17----19-17-20-17-19-17----20--19--12----13-12-15-12-13-12----13--15----|
B|-------------------------------------------------------------------------|
G|-------------------------------------------------------------------------|
D|-------------------------------------------------------------------------|
A|-------------------------------------------------------------------------|
E|-------------------------------------------------------------------------|

e|-15----17-15-19-15-17-15----20--19--17----19-17-20-17-19-17----20--19----|
B|-------------------------------------------------------------------------|
G|-------------------------------------------------------------------------|
D|-------------------------------------------------------------------------|
A|-------------------------------------------------------------------------|
E|-------------------------------------------------------------------------|

e|-15-15-15-15-|-15-15----------|--------------|----------------------------|
B|-------------|-------17-17-17-|-/17-17-17-17-|-17-17----------------------|
G|-------------|----------------|--------------|------13-13-13--------------|
D|-------------|----------------|--------------|----------------------------|2x
A|-------------|----------------|--------------|----------------------------|
E|-------------|----------------|--------------|----------------------------|

Bridge
e|--------------------------20-19-12------13--15-----20-19-17------20-19---|
B|-------------------------------------------------------------------------|
G|-------------------------------------------------------------------------|
D|-7----9--10----12--14----------------------------------------------------|
A|-------------------------------------------------------------------------|
E|-------------------------------------------------------------------------|

Order:
Intro                  Intro
Couplet 2x             Refrein
Intro                  Intro
Refrein                Bridge
Couplet                Intro 4x
Tap to rate this tab
# A B C D E F G H I J K L M N O P Q R S T U V W X Y Z