Song name
# A B C D E F G H I J K L M N O P Q R S T U V W X Y Z

Editors - A Ton Of Love tab

Editors - A ton of love guitar tab
album: the weight of your love
by koenmulderman

INTRO: (distortion)

E||-----------------------------------|----------------------------------|
B||-----------------------------------|----------------------------------|
G||-----------11^--11^--11^-----------|-----------11^--11^--11^----------|
D||---12(let ring)-----------10^--12--|---12(let ring)-----------10^--12-|
A||-----------------------------------|----------------------------------|
E||-----------------------------------|----------------------------------|

E||-------------------------------------|
B||-------------------------------------|
G||-----------11^--11^--11^-------------|
D||---12(let ring)-----------10^---12---|(let ring)
A||-------------------------------------|
E||-------------------------------------|
(bend the notes on the 11th fret on the G string shortly up, and then back
to the 11th fret)

verse 1:(drum, keys, bass)

PRE CHORUS 1: (a bit distorted)

E||-----------------------------------|-----------------------------------|
B||-----------------------------------|-----------------------------------|
G||-----------------------------------|-----------------------------------|
D||---12(10X)--12^(14)(10X)-----------|---12(10X)--12^(14)(10X)-----------|
A||-----------------------------------|-----------------------------------|
E||-----------------------------------|-----------------------------------|
   Desire, Desire...
E||-----------------------------------|-----------------------------------|
B||-----------------------------------|-----------------------------------|
G||-----------------------------------|-----------------------------------|
D||---12(10X)--12^(14)(10X)-----------|---12(10X)--12^(14)(10X)-----------|
A||-----------------------------------|-----------------------------------|
E||-----------------------------------|-----------------------------------|
   Desire, Desire...


PRE CHORUS 2: (a bit distortion)

E||-----------------------------------|----------------------------------|
B||-----------------------------------|----------------------------------|
G||------------11---------------11----|----------------11--------------11|
D||---12--12---------12--12--12-------|---12--12--12-------12--12--12----|
A||-----------------------------------|----------------------------------|
E||-----------------------------------|----------------------------------|
   Taken by force...
E||-----------------------------------|----------------------------------|
B||-----------------------------------|----------------------------------|
G||-----------19----------------19----|---------------19--------------19-|
D||---17--17--------17--17--17--------|---17--17--17------17--17--17-----|
A||-----------------------------------|----------------------------------|
E||-----------------------------------|----------------------------------|
   Twisted fate...
E||-----------------------------------|----------------------------------|
B||-----------------------------------|----------------------------------|
G||-----------19--------------19------|--------------19--------------19--|
D||---19--19------19--19--19----------|--19--19--19------19--19--19------|
A||-----------------------------------|----------------------------------|
E||-----------------------------------|----------------------------------|
   Well, what weighs more...
E||-----------------------------------|------------------------------------|
B||-----------------------------------|------------------------------------|o
G||-----------14--------------14------|--------------14--------------14----|
D||---16--16------16--16--16----------|--16--16--16------16--16--16--------|
A||-----------------------------------|------------------------------------|o
E||-----------------------------------|------------------------------------|
   Down on your plate...     (play this bit 2X)


CHORUS (distorted)

E||-----------------------------------|----------------------------------|
B||-----------------------------------|----------------------------------|
G||-----------------------------------|----------------------------------|
D||--7--------------------------------|--7-------------------------------|
A||--7--------------------------------|--7-------------------------------|
E||--5--------------------------------|--5-------------------------------|
    A chance of,                       A chance of,
  |-----------------------------------|
  |-----------------------------------|
  |-----------------------------------|
  |--7--------------------------------|
  |--7--------------------------------|
  |--5--------------------------------|
    A chance of,

E||-----------------------------------|----------------------------------|
B||-----------------------------------|----------------------------------|
G||-----------------------------------|----------------------------------|
D||---------12------------------------|-------10-------------------------|
A||---------12------------------------|-------10-------------------------|
E||---------10------------------------|-------8--------------------------|
                   Desire,                         Desire,
E||-----------------------------------|----------------------------------|
B||-----------------------------------|----------------------------------|
G||-----------------------------------|----------------------------------|
D||---------12------------------------|--------10------------------------|
A||---------12------------------------|--------10------------------------|
E||---------10------------------------|--------8-------------------------|
                   Desire,                         Desire,

VERSE 2 (clean)

E||-----------------------------------|----------------------------------|
B||-----------------------------------|----------------------------------|
G||--11~------11~------11~------11~---|--12~----12~-16--14--11-----------|
D||-----------------------------------|----------------------------------|
A||-----------------------------------|----------------------------------|
E||-----------------------------------|----------------------------------|

E||-----------------------------------|----------------------------------|
B||-----------------------------------|----------------------------------|
G||--11~------11~------11~------11~---|--12~-----12~-----12~-----12~-----|
D||-----------------------------------|----------------------------------|
A||-----------------------------------|----------------------------------|
E||-----------------------------------|----------------------------------|

PRE CHORUS 2...
Taken by force...

CHORUS...
A chance of...
E||-----------------------------------|----------------------------------|
B||-----------------------------------|----------------------------------|
G||-----------------------------------|----------------------------------|
D||---------12------------------------|-------10-------------------------|
A||---------12------------------------|-------10-------------------------|
E||---------10------------------------|-------8--------------------------|
                   Desire,                         Desire,
E||-----------------------------------|-------------------------------------|
B||-----------------------------------|-------------------------------------|
G||-----------------------------------|-------------------------------------|
D||---------12------------------------|--------5--------8-------------------|
A||---------12------------------------|--------5--------8-------------------|
E||---------10------------------------|--------3--------6-------------------|
                   Desire,                         Desire,

small difference in the end second time chorus,

PLAY INTRO...

END

E||-----------------------------------|----------------------------------|
B||-----------------------------------|----------------------------------|
G||-----------------------------------|----------------------------------|
D||------7--7-------------------------|------7--7------------------------|
A||------7--7-------------------------|------7--7------------------------|
E||------5--5pmX3---------------------|------5--5pmX3--------------------|
          A chance of,                        A chance of,
E||-----------------------------------|----------------------------------|
B||-----------------------------------|----------------------------------|
G||-----------------------------------|----------------------------------|
D||------7--7-------------------------|------7--7------------------------|
A||------7--7-------------------------|------7--7------------------------|
E||------5--5pmX3---------------------|------5--5pmX3--------------------|

          A chance of,                        A chance of,ahahahaaiii

INTRO
VERSE1
PRE CHORUS1
PRE CHORUS2
CHORUS
VERSE2
PRE CHORUS2
CHORUS
INTRO
END
Tap to rate this tab
# A B C D E F G H I J K L M N O P Q R S T U V W X Y Z