Song name
# A B C D E F G H I J K L M N O P Q R S T U V W X Y Z

Editors - What Is This Thing Called Love tab

Hey guys, decided to try and transpose the violin intro of this song to guitar. My
first ever tab, so please be gentle. :)

Also added the bridge/outro part as well.

Enjoy.


Intro:

E|--17--14------12--14--17--17--14------12------14--12----------14--12----------|
B|----------15----------------------15------15----------15--12----------15--10--|
G|------------------------------------------------------------------------------|
D|------------------------------------------------------------------------------|
A|------------------------------------------------------------------------------|
E|------------------------------------------------------------------------------|

Bridge/Outro (2:50):

E|-------------------------|
B|--------7-----10---------|
G|--7--9-----7------7--9---|(b)
D|-------------------------|
A|-------------------------|
E|-------------------------|

E|------------------------------|
B|--------7-----10--------------|
G|--7--9-----7------7--9--7--6--|
D|------------------------------|
A|------------------------------|
E|------------------------------|
Tap to rate this tab
# A B C D E F G H I J K L M N O P Q R S T U V W X Y Z