Song name
# A B C D E F G H I J K L M N O P Q R S T U V W X Y Z

Editors - Munich tab

Editors - Munich

Lead Guitar: Intro Riff 1

e|---10-10-10-6-6-6-----------------6-6--------------------------------------|
B|------------------8-8-8-6-6-6-8-8------------------------------------------|
G|---------------------------------------------------------------------------|
D|---------------------------------------------------------------------------|
A|---------------------------------------------------------------------------|
E|---------------------------------------------------------------------------|


Intro Riff 2  x2
e|-------10----------10----------------------------10-10-10-10-10-10-10-10---|
B|-11-11----11-11-11----11---------------------------------------------------|
G|-------------------------12-12-12-12-12-12-12-12---------------------------|
D|---------------------------------------------------------------------------|
A|---------------------------------------------------------------------------|
E|---------------------------------------------------------------------------|


e|---------------------------------------------------------------------------|
B|-11-11-11------------------------------------------------------------------|
G|----------12-12-12-12-12---------------------------------------------------|
D|---------------------------------------------------------------------------|
A|---------------------------------------------------------------------------|
E|---------------------------------------------------------------------------|

Verse Riff 1

e|--10--10---10--10---10--10---10--10---10--10---10--10---10--10---10--10----|
B|--8---8----8---8----8---8----8---8----8---8----8---8----8---8----8---8-----|
G|---------------------------------------------------------------------------| x2
D|---------------------------------------------------------------------------|
A|---------------------------------------------------------------------------|
E|---------------------------------------------------------------------------|

Verse Riff 2

e|--6--6---6--6---10--10---10--10--6--6---6--6---6--6---6--6-----------------|
B|--8--8---8--8---8---8----8---8---8--8---8--8---8--8---8--8-----------------|
G|---------------------------------------------------------------------------| x2
D|---------------------------------------------------------------------------|
A|---------------------------------------------------------------------------|
E|---------------------------------------------------------------------------|

Intro Riff 2  x2
e|-------10----------10----------------------------10-10-10-10-10-10-10-10---|
B|-11-11----11-11-11----11---------------------------------------------------|
G|-------------------------12-12-12-12-12-12-12-12---------------------------|
D|---------------------------------------------------------------------------|
A|---------------------------------------------------------------------------|
E|---------------------------------------------------------------------------|


e|---------------------------------------------------------------------------|
B|-11-11-11------------------------------------------------------------------|
G|----------12-12-12-12-12---------------------------------------------------|
D|---------------------------------------------------------------------------|
A|---------------------------------------------------------------------------|
E|---------------------------------------------------------------------------|


Chorus lead: Tremolo picking

e|-8--11--15--18--15--11-----------------------------------------------------|
B|---------------------------------------------------------------------------|
G|---------------------------------------------------------------------------|
D|---------------------------------------------------------------------------|
A|---------------------------------------------------------------------------|
E|---------------------------------------------------------------------------|


========================================================= 

By Alex_Kov
Tap to rate this tab
# A B C D E F G H I J K L M N O P Q R S T U V W X Y Z