Song name
# A B C D E F G H I J K L M N O P Q R S T U V W X Y Z

Editors - All Sparks tab

Editors - All Sparks

Tuning: Standart 


 e|------------------------------------------------------------------------|
 B|------------------------------------------------------------------------|
 G|-------11-11-9-9-11-11-x4---13-13-13-14-11~-13-13-13-14-11~---9-11------|
 D|------------------------------------------------------------------------|
 A|---9-9------------------------------------------------------------------|
 E|------------------------------------------------------------------------|

 e|------------------------------------------------------------------------|
 B|------------------------------------------------------------------------|
 G|-------11-11-9-9-11-11-x6---13-13-13-14-11~-13-13-13-14-11~---9-11------|
 D|------------------------------------------------------------------------|
 A|---9-9------------------------------------------------------------------|
 E|------------------------------------------------------------------------|

 e|------------------------------------------------------------------------|
 B|---------------------------------14-17-x7-------------------------------|
 G|-------11-11-9-9-11-11-x2-------------------13-13-13-14-11~-x2---9-11---|
 D|------------------------------------------------------------------------|
 A|---9-9------------------------------------------------------------------|
 E|------------------------------------------------------------------------|

 e|------------------------------------------------------------------------|
 B|----14-17-x11-------------------------------14-17-x4--------------------|
 G|---------------13-13-13-14-11~-x2---9-11--------------------------------|
 D|------------------------------------------------------------------------|
 A|------------------------------------------------------------------------|
 E|------------------------------------------------------------------------|

Chorus :

 e|---12-12-12-12-12-12-12-12---10-10-9--9--7-7-5----x3--------------------|
 B|---14-14-14-14-14-14-14-14---12-12-10-10-9-9-7--------------------------|
 G|------------------------------------------------------------------------|
 D|------------------------------------------------------------------------|
 A|------------------------------------------------------------------------|
 E|------------------------------------------------------------------------|

 e|---12-12-12-12-12-12-12-12---15-15-15-15---16-16-16---------------------|
 B|---14-14-14-14-14-14-14-14---14-14-14-14---14-14-14---------------------|
 G|------------------------------------------------------------------------|
 D|------------------------------------------------------------------------|
 A|------------------------------------------------------------------------|
 E|------------------------------------------------------------------------|

Verse :

 e|------------------------------------------------------------------------|
 B|------------------------------------------------------------------------|
 G|-------11-11-9-9-11-11-x4---13-13-13-14-11~-13-13-13-14-11~---9-11------|
 D|------------------------------------------------------------------------|
 A|---9-9------------------------------------------------------------------|
 E|------------------------------------------------------------------------|

 e|------------------------------------------------------------------------|
 B|------------------------------------------------------------------------|
 G|-------11-11-9-9-11-11-x6---13-13-13-14-11~-13-13-13-14-11~---9-11------|
 D|------------------------------------------------------------------------|
 A|---9-9------------------------------------------------------------------|
 E|------------------------------------------------------------------------|

 e|------------------------------------------------------------------------|
 B|---------------------------------14-17-x7-------------------------------|
 G|-------11-11-9-9-11-11-x2-------------------13-13-13-14-11~-x2---9-11---|
 D|------------------------------------------------------------------------|
 A|---9-9------------------------------------------------------------------|
 E|------------------------------------------------------------------------|

 e|------------------------------------------------------------------------|
 B|--14-17-x4--------------------------------------------------------------|
 G|------------------------------------------------------------------------|
 D|------------------------------------------------------------------------|
 A|------------------------------------------------------------------------|
 E|------------------------------------------------------------------------|

Chorus :

 e|---12-12-12-12-12-12-12-12---10-10-9--9--7-7-5----x3--------------------|
 B|---14-14-14-14-14-14-14-14---12-12-10-10-9-9-7--------------------------|
 G|------------------------------------------------------------------------|
 D|------------------------------------------------------------------------|
 A|------------------------------------------------------------------------|
 E|------------------------------------------------------------------------|

 e|---12-12-12-12-12-12-12-12---15-15-15-15---16-16-16---------------------|
 B|---14-14-14-14-14-14-14-14---14-14-14-14---14-14-14---------------------|
 G|------------------------------------------------------------------------|
 D|------------------------------------------------------------------------|
 A|------------------------------------------------------------------------|
 E|------------------------------------------------------------------------|

Bass Solo , then :

 e|------------------------------------------------------------------------|
 B|------------------------------------------------------------------------|
 G|-------11-11-9-9-11-11-x4---13-13-13-14-11~-13-13-13-14-11~---9-11------|
 D|------------------------------------------------------------------------|
 A|---9-9------------------------------------------------------------------|
 E|------------------------------------------------------------------------|

 e|------------------------------------------------------------------------|
 B|------------------------------------------------------------------------|
 G|-------11-11-9-9-11-11-x6---13-13-13-14-11~-13-13-13-14-11~---9-11------|
 D|------------------------------------------------------------------------|
 A|---9-9------------------------------------------------------------------|
 E|------------------------------------------------------------------------|

 e|------------------------------------------------------------------------|
 B|------------------------------------------------------------------------|
 G|-------11-11-9-9-11-11-x2-----------------------------------------------|
 D|------------------------------------------------------------------------|
 A|---9-9------------------------------------------------------------------|
 E|------------------------------------------------------------------------|

Chorus :

 e|---12-12-12-12-12-12-12-12---10-10-9--9--7-7-5----x7--------------------|
 B|---14-14-14-14-14-14-14-14---12-12-10-10-9-9-7--------------------------|
 G|------------------------------------------------------------------------|
 D|------------------------------------------------------------------------|
 A|------------------------------------------------------------------------|
 E|------------------------------------------------------------------------|

 e|---12-12-12-12-12-12-12-12---15-15-15-15---16-16-16---------------------|
 B|---14-14-14-14-14-14-14-14---14-14-14-14---14-14-14---------------------|
 G|------------------------------------------------------------------------|
 D|------------------------------------------------------------------------|
 A|------------------------------------------------------------------------|
 E|------------------------------------------------------------------------|

End on the F# . 

thanks.
Tap to rate this tab
# A B C D E F G H I J K L M N O P Q R S T U V W X Y Z