Song name
# A B C D E F G H I J K L M N O P Q R S T U V W X Y Z

Editors - A Ton Of Love tab

A Ton of Love
Album: The Weight of Your Love
Track: 3 of 11
Performed by: Justin Lockey

Intro-
e|----------------------------------|
B|----------------------------------|
G|----11h12p11-11h12p11-11h12p11----|
D|-12----------------------------10-|
A|----------------------------------|
E|----------------------------------|

Verse 1-
D|-12~-|

Chorus 1 (re-introduction of guitar)- 
e|-----------------------------------|
B|-----------------------------------|
G|-----------------------------------|
D|-1212121212121212-1414141414141414-|
A|-----------------------------------|
E|-----------------------------------|

Pre-chorus- 
Part-1
e|---------------------------------------------------------------|
B|---------------------------------------------------------------|
G|----11---11---11---11---12---12---12---12---14---14---14---14--|
D|-12---12---12---12---12---12---12---12---12---12---12---12-----|
A|---------------------------------------------------------------|
E|---------------------------------------------------------------|
Part-2
e|----------------------|
B|----------------------|
G|----16---16---16---16-|
D|-14---14---14---14----|
A|----------------------|
E|----------------------|
Part-1 again
Then-
e|----------------------------|
B|----------------------------|
G|----------------------------|
D|-77777777777777777777777777-|
A|-77777777777777777777777777-|
E|-55555555555555555555555555-|

Chorus 2-
e|----------------------------|
B|----------------------------|
G|----------------------------|
D|-12-12\7/10-10\7/12-12\7/10-|
A|-12-12\7/10-10\7/12-12\7/10-|
E|-10-10\5/8---8\5/10-10\5/8--|

Verse 2-
e|----1010----1010---1010---1010----1010---1010---1010-------------------|
B|--------------------------------------------------------------10-12-10-|
G|1111----1111---1111----1111----1212---1212---1212----1212--10----------|
D|-----------------------------------------------------------------------|
A|-----------------------------------------------------------------------|
E|-----------------------------------------------------------------------|

e|---------------------------------------------------------|
B|------1111----1111----1111-----1111---77---77---77---77--|
G|---------------------------------------------------------|
D|-1212-----1212----1212-----1212-----77---77---77---77----|
A|---------------------------------------------------------|
E|---------------------------------------------------------|

Pre-chorus

Chorus 3-
e|-----------------------------|
B|-----------------------------|
G|-----------------------------|
D|-12-12\7/10-10\7/12-12\7-5-8-|
A|-12-12\7/10-10\7/12-12\7-5-8-|
E|-10-10\5/12-10\5/10-10\5-3-6-|

Then repeat intro

Outro
e|--------------------------|
B|--------------------------|
G|--------------------------|
D|-777777777777777777777777-|
A|-777777777777777777777777-|
E|-555555555555555555555555-|
Tap to rate this tab
# A B C D E F G H I J K L M N O P Q R S T U V W X Y Z