Song name
# A B C D E F G H I J K L M N O P Q R S T U V W X Y Z

Editors - All Spar tab

----------------------------------------------------------------------------
			     All Sparks - Editors
----------------------------------------------------------------------------

Tabbed by : Michael Williams
Email     : michael_mayfly@msn.com

                              INTRO

e|----------------------|
B|----------------------|
G|-----11-11-9-9-11-11--|
D|----------------------|
A|-9-9------------------|  x 3
E|----------------------|

e|-----------------------------------------------|
B|----------------9-9-9-10-----9-9-9-10----------|
G|-----11-11-9-9-----------11-----------11--9-11-|
D|-----------------------------------------------|
A|-9-9-------------------------------------------|
E|-----------------------------------------------|

e|----------------------|
B|----------------------|
G|-----11-11-9-9-11-11--|
D|----------------------|
A|-9-9------------------|  x 5
E|----------------------|

e|-------------------------------------------------|
B|----------------9-9-9-10-----9-9-9-10------------|
G|-----11-11-9-9-----------11-----------11--9-11---|
D|-------------------------------------------------|
A|-9-9---------------------------------------------|
E|-------------------------------------------------|

e|----------------------|
B|----------------------|
G|-----11-11-9-9-11-11--|
D|----------------------|
A|-9-9------------------|  x 2
E|----------------------|

this is my first tab but i'll work on the rest of the song later....
Tap to rate this tab
# A B C D E F G H I J K L M N O P Q R S T U V W X Y Z