Song name
# A B C D E F G H I J K L M N O P Q R S T U V W X Y Z

Editors - An End Has A Start tab

Editors - An End Has A Start

Album: An End Has A Start (2007)
Lead Guitar
Standard Tuning: EADGBE

I am 98% sure this is how Chris Urbanowicz plays it.
Chris loves tremolo picking so you can play around with that throughout the song.
If you don't know how to tremolo pick, just pick the notes.

___________________Intro:___________________________

e|----------------------------------------|
b|----------------------------------------|
g|--11------------------11--9--13--14--9--| x 2
D|------11----14--------------------------|
A|----------------14----------------------|
E|----------------------------------------|

___________________Verse:____________________________

No guitars.

___________________Pre-Chorus:_______________________

Either pick or tremolo pick these notes 8 times each.

e|--17--16--17--14--|
b|------------------|
g|------------------| x 2 then
D|------------------|
A|------------------|
E|------------------|

e|--16--17--|
b|----------|
g|----------|
D|----------|
A|----------|
E|----------|

___________________Chorus:____________________________

Either pick or tremolo pick these notes.

e|---------------------------------------------------------------------|
b|--2-2-2-2-2-2-2-2-2-2-2-2--5-5-5-5--9-9-9-9-9-9-9-9-9-9-9-9-9-9-9-9--|
g|---------------------------------------------------------------------|
D|---------------------------------------------------------------------|
A|---------------------------------------------------------------------|
E|---------------------------------------------------------------------|

e|--16-16-16-16-16-16-16-16--12-12-12-12--14-14-14-14--9-9-9--7-7-7-7-7-7-7-7--|
b|-----------------------------------------------------------------------------|
g|-----------------------------------------------------------------------------|
D|-----------------------------------------------------------------------------|
A|-----------------------------------------------------------------------------|
E|-----------------------------------------------------------------------------|

___________________Intro:___________________________

e|----------------------------------------|
b|----------------------------------------|
g|--11------------------11--9--13--14--9--| x 2
D|------11----14--------------------------|
A|----------------14----------------------|
E|----------------------------------------|

___________________Verse:____________________________

No guitars.

___________________Pre-Chorus:_______________________

Either pick or tremolo pick these notes 8 times each.

e|--17--16--17--14--|
b|------------------|
g|------------------| x 2 then
D|------------------|
A|------------------|
E|------------------|

e|--16--17--|
b|----------|
g|----------|
D|----------|
A|----------|
E|----------|

___________________Chorus:____________________________

Either pick or tremolo pick these notes.

e|---------------------------------------------------------------------|
b|--2-2-2-2-2-2-2-2-2-2-2-2--5-5-5-5--9-9-9-9-9-9-9-9-9-9-9-9-9-9-9-9--|
g|---------------------------------------------------------------------|
D|---------------------------------------------------------------------|
A|---------------------------------------------------------------------|
E|---------------------------------------------------------------------|

e|--16-16-16-16-16-16-16-16--12-12-12-12--14-14-14-14--9-9-9--7-7-7-7-7-7-7-7--|
b|-----------------------------------------------------------------------------|
g|-----------------------------------------------------------------------------|
D|-----------------------------------------------------------------------------|
A|-----------------------------------------------------------------------------|
E|-----------------------------------------------------------------------------|

e|--21-21-21-21-21-21-21-21--19-19-19-19--21-21-21-21--16-16-16-16-16-16-16-16--|
b|------------------------------------------------------------------------------|
g|------------------------------------------------------------------------------|
D|------------------------------------------------------------------------------|
A|------------------------------------------------------------------------------|
E|------------------------------------------------------------------------------|

e|--16-16-16-16-16-16-16-16--12-12-12-12--14-14-14-14--9-9-9--7-7-7-7-7-7-7-7--|
b|-----------------------------------------------------------------------------|
g|-----------------------------------------------------------------------------|
D|-----------------------------------------------------------------------------|
A|-----------------------------------------------------------------------------|
E|-----------------------------------------------------------------------------|

___________________Bridge:____________________________

Either pick or tremolo pick these notes.

e|-------------------------------------------------------------------------|
b|-------------------------------------------------------------------------|
g|-----------------------------6-6-6-6--4-4-4-4-4-4-4-4-----------9-9-9-9--|
D|--4-4-4-4--6-6-6-6--7-7-7-7----------------------------6-6-6-6-----------|
A|-------------------------------------------------------------------------|
E|-------------------------------------------------------------------------|

e|-------------------------------------------------------------------------|
b|-------------------------------------------------------------------------|
g|-----------------------------6-6-6-6--4-4-4-4-4-4-4-4--9-9-9-9-9-9-9-9---|
D|--4-4-4-4--6-6-6-6--7-7-7-7----------------------------------------------|
A|-------------------------------------------------------------------------|
E|-------------------------------------------------------------------------|

Play that twice and then:

___________________Chorus:____________________________

Either pick or tremolo pick these notes.

e|---------------------------------------------------------------------|
b|--2-2-2-2-2-2-2-2-2-2-2-2--5-5-5-5--9-9-9-9-9-9-9-9-9-9-9-9-9-9-9-9--|
g|---------------------------------------------------------------------|
D|---------------------------------------------------------------------|
A|---------------------------------------------------------------------|
E|---------------------------------------------------------------------|

e|--16-16-16-16-16-16-16-16--12-12-12-12--14-14-14-14--9-9-9--7-7-7-7-7-7-7-7--|
b|-----------------------------------------------------------------------------|
g|-----------------------------------------------------------------------------|
D|-----------------------------------------------------------------------------|
A|-----------------------------------------------------------------------------|
E|-----------------------------------------------------------------------------|

e|--21-21-21-21-21-21-21-21--19-19-19-19--21-21-21-21--16-16-16-16-16-16-16-16--|
b|------------------------------------------------------------------------------|
g|------------------------------------------------------------------------------|
D|------------------------------------------------------------------------------|
A|------------------------------------------------------------------------------|
E|------------------------------------------------------------------------------|

e|--16-16-16-16-16-16-16-16--12-12-12-12--14-14-14-14--9-9-9--7-7-7-7-7-7-7-7--|
b|-----------------------------------------------------------------------------|
g|-----------------------------------------------------------------------------|
D|-----------------------------------------------------------------------------|
A|-----------------------------------------------------------------------------|
E|-----------------------------------------------------------------------------|

e|---------------------------------------------------------------------|
b|--2-2-2-2-2-2-2-2-2-2-2-2--5-5-5-5--9-9-9-9-9-9-9-9-9-9-9-9-9-9-9-9--|
g|---------------------------------------------------------------------|
D|---------------------------------------------------------------------|
A|---------------------------------------------------------------------|
E|---------------------------------------------------------------------|

e|--16-16-16-16-16-16-16-16--12-12-12-12--14-14-14-14--9-9-9--7-7-7-7-7-7-7-7--|
b|-----------------------------------------------------------------------------|
g|-----------------------------------------------------------------------------|
D|-----------------------------------------------------------------------------|
A|-----------------------------------------------------------------------------|
E|-----------------------------------------------------------------------------|

___________________Outro:___________________________

e|-----------------------------------------|
b|-----------------------------------------|
g|--11------------------11--9--13--14--9---| x 4
D|------11----14---------------------------|
A|----------------14-----------------------|
E|-----------------------------------------|
Tap to rate this tab
# A B C D E F G H I J K L M N O P Q R S T U V W X Y Z