Song name
# A B C D E F G H I J K L M N O P Q R S T U V W X Y Z

Editors - Time To Slow Down tab

Editors - Time to Slow Down - Guitar Tabs

Tabbed by: Bugsan
Email:bugsan666@hotmail.com


It's a B-side from Bullets EP. This song sounds sweet to me...


Tom's Arpegio :
===============

      D11         A7add13        Emadd9
e||------------0-----------0--|-----------0-----------0---||
B||---------------------------|---------------------------||
G||*--------0-----------0-----|--------0-----------0-----*||
D||*-----4-----------4--------|-----4-----------4--------*||
A||---5-----------0-----------|---------------------------||
E||---------------------------|--0-----------0------------||


Chris :
=======

e||------------------------------|------------------------|
B||---15--------17--15s--19--17--|-----15-----------------|
G||*-----------------------------|------------------------|
D||*-----------------------------|------------------------|
A||------------------------------|------------------------|
E||------------------------------|------------------------|


e||-------------------------------------|-----------------||
B||--15p--14--12s--10-------------------|-----------------||
G||--------------------11--14s--16--11--|--9-------------*||
D||-------------------------------------|----------------*||
A||-------------------------------------|-----------------||
E||-------------------------------------|-----------------||
Tap to rate this tab
 
# A B C D E F G H I J K L M N O P Q R S T U V W X Y Z