Song name
# A B C D E F G H I J K L M N O P Q R S T U V W X Y Z

Edje - Nomore tab

Help us improve GuitareTab! Take a short survey!
Nomore
written by
Eric Yee, Josh Baca,
Dominic Guiren, and Eric
Castillo
COPYRIGHT 2001

Bass line Inro:
   Em                         Am                                   R
[------------------------------------------------------------------|E
[--------------------------------7p5--5---7-----7p5---5--7---------|P
[---7p5--5--7-----7p5--5---7---0--------------0--------------------|E
[-0------------0---------------------------------------------------|A
    Bm                                                             T
[------------------------------]
[------------------------------]
[------9p7--7---9----9p7--7--9-]
[---9-------------9------------]

Guitar line:
[------------0------0---------0---------|R
[-------9-------9-----------1-----1-----|E
[----------8--------------------2-------|P
[-----9------------9-------2-------2----|E
[---7------------7-------0--------------|A
[-0-------------------------------------|T

[-0------0------------0-]
[-3--3------------3-----]
[-4----4------------4---]
[-4--------4------------]
[-2------------2--------]
[-----------------------]


dISTORTION
                    FILL>1
[-----------------------------]
[-----------------------------]
[-9X9\--5X5\--7X7-------------]
[-9X9\--5X5\--7X7-------5H7P5-]
[-7X7\--3X3\--5X5---5H7-------]
[-----------------------------]

FILL>1
[------------]
[------------]
[------4H5P4-]
[--4H5-------]
[------------]
[------------]

THATS IT!!!
Related for Nomore tab