Song name
# A B C D E F G H I J K L M N O P Q R S T U V W X Y Z

Ednas Goldfish - Veronica Sawyer tab

Intro/Verse 
e|---------------------------------------------------------------------------| 
B|---------------------------------------------------------------------------| 
G|--------8------------------------------------------------------------------| 
D|-10-6-8-8------------------------------------------------------------------| 
A|-10-6-8-6------------------------------------------------------------------| 
E|-8--4-6--------------------------------------------------------------------| 

Pre-Chorus (last part of verse before chorus) 
e|---------------------------------------------------------------------------| 
B|---------------------------------------------------------------------------| 
G|---------------------------------------------------------------------------| 
D|-10-6-8--------------------------------------------------------------------| 
A|-10-6-8--------------------------------------------------------------------| 
E|-8--4-6--------------------------------------------------------------------| 

Chorus 
e|---------------------------------------------------------------------------| 
B|---------------------------------------------------------------------------| 
G|-8-------------------------------------------------------------------------| 
D|-8-6-10-8------------------------------------------------------------------| 
A|-6-6-10-8------------------------------------------------------------------| 
E|---4-8--6------------------------------------------------------------------| 

Solo 
e|---------------------------------------------------------------------------| 
B|---------------------------------------------------------------------------| 
G|---------------------------------------------------------------------------| 
D|---------------------------------------------------------------------------| 
A|-3-5-6-------3-5-6-------3-3-3-1-1-1-3-3-3-1-1-3-6-5-----------------------| 
E|-------3-4-6-------3-4-6---------------------------------------------------| 


e|---------------------------------------------------------------------------| 
B|---------------------------------------------------------------------------| 
G|---------------------------------------------------------------------------| 
D|---------------------------------------------------------------------------| 
A|-3-3-3-1-1-1-3-3-3-1-1-3-6-5-3---1-3-5-6-----------------------------------| 
E|-------------------------------3-------------------------------------------| 

In the breakdown part strum a D# 
Tap to rate this tab
# A B C D E F G H I J K L M N O P Q R S T U V W X Y Z