Guitaretab - guitar tabs
Song name
# A B C D E F G H I J K L M N O P Q R S T U V W X Y Z

Eduardo Ardanuy - Search For Light tab

Search for Light                                 
         
by Eduardo Ardanuy

  This is the best version of Edu's Search for light i tabbed it out from the latest guitar pro.


      E    S  S  S  S  S  S  S  S  S  S  Q      
E||--17b--17-16--------------------------------|
B||-------------17-----------------------------|
G||----------------16----14----13-14-16--------|
D||-------------------14----14----------14~----|
A||--------------------------------------------|
E||--------------------------------------------|


   S   S  S  S  E    S  E.     Q.       
-----------------------14br------------|
------------12-15~--15-----------------|
--14s-12-12-------------------14~------|
---------------------------------------|
---------------------------------------|
---------------------------------------|


   E     S  S  S  S  S  S  S  S  S  S  S  S  S  S  
--17br--17-16----------------------------------19-|
--------------17----------------------17-19-20----|
-----------------16----14----13-14-16-------------|
--------------------14----14----------------------|
--------------------------------------------------|
--------------------------------------------------|


   Q       Q      Q.       E      E     S  S  S  S  S  S  S  S  S  S  Q      
--22b~----22~-----------------|--17br--17-16--------------------------------|
-----------------20b~------L--|--------------17-----------------------------|
------------------------------|-----------------16----14----13-14-16--------|
------------------------------|--------------------14----14----------14~----|
------------------------------|---------------------------------------------|
------------------------------|---------------------------------------------|


   S   S  S  S  E.    S  E     S  E   E.   
---------------14~---15-14br--------------|
------------12----------------15----------|
--14s-12-12----------------------14~--L---|
------------------------------------------|
------------------------------------------|
------------------------------------------|


   T  T  T  T  T  T  T  T  T  T  T  T  T  T  T  T  T  T  T  T  T  T  T  T  T  T 
--16-17-16-12-12----16-17-16-12-12----16-17-16-12-12----16-19-16-12-12----16-17-
-----------------12----------------12----------------12----------------12-------
--------------------------------------------------------------------------------
--------------------------------------------------------------------------------
--------------------------------------------------------------------------------
--------------------------------------------------------------------------------


                                       W                                   
  S  T  T  T  T  T   T  T  T  T  T  T  T     T  T  T  T  T  T  S   E  E.   
----12-------12-----------------------------------------------------------|
--L----12-15----12--------------------------------------------------------|
----------------14br-L-14-12----12-14-------------------------------------|
-----------------------------14-------12brb--L----------------------------|
-----------------------------------------------12-10----10-12-10s-12--L---|
-----------------------------------------------------12-------------------|


   S  S S  S  E.    S Q.       S  S     S  S  S  S  Q.       Q     S. X X  
------------------------------11-12-|--13-14-11--------------9-----L--L-L-|
------------------------------------|--------------12~------12b----L--L-L-|
--------9-12-12~---11-9~------------|-----------11------------------------|
-----11-----------------------------|-------------------------------------|
--12--------------------------------|-------------------------------------|
------------------------------------|-------------------------------------|


  T T X X T  S    S  Q      S  S  S  S  S  S  S. X X  
--9-L--------9----L----------------------------------|
------9-L-L-12br--L-12~----12-12-12-----L-12-12--L-L-|
------------------------------------11-13-11-11~-L-L-|
-----------------------------------------------------|
-----------------------------------------------------|
-----------------------------------------------------|


  T T X X T  E   E   T  T  T  T  T T T T T T  Q     T. X  
---------------------------------------------------------|
--L-L-L-L-L------L-------------------7--------------9--L-|
--L-L-L-L-L-11~--L--11-13-11-----------9-6---11b---------|
-----------------------------14-11-9-------9-------------|
---------------------------------------------------------|
---------------------------------------------------------|


   T T  T T  X  S. X  E   E   E   Q.       
------------------------------------------|
--10-L-12-L-10--L--L--9---7---5---7-------|
------------12b-L--L-11b--9b--7b--9b------|
------------------------------------------|
------------------------------------------|
------------------------------------------|

[ Tab from: http://www.guitaretab.com/e/eduardo-ardanuy/103872.html ]
  T T T T T T T T T T T T T T T T T T T T T T T T T T  T T T T T T  
-------------------------------------------------------------------|
-------------------------------------------------------------------|
--8-9-8-6-----8-9-8-6-----8-9-8-6-----8-9-8-6-----9-6-11-6-9-6-----|
----------9-6---------9-6---------9-6---------9-6--------------9-6-|
-------------------------------------------------------------------|
-------------------------------------------------------------------|


                                                                    9           
                                                    |--3--|                     
  T T T T T  T T T  T T  T T  T  T T  T  T T T  T T T  T  T  T T  T T  T T  T  T
----------------------------------------------------9-10-11-10-9----x-----------
---------------------------------------------9-12-9--------------12---12-9----12
--8-9-8-6--------9----9-11-9----12-9----13-9-------------------------------11---
----------9----9---11--------11------11-----------------------------------------
------------11------------------------------------------------------------------
--------------------------------------------------------------------------------


   T  T T T  T  T Q     T   T  S  S  S  E   E     S  
--------------------------/12-12-14-16-17--14br-----|
-------------------------------------------------17-|
--12-11-9------11-9~--------------------------------|
----------9-11--------------------------------------|
----------------------------------------------------|
----------------------------------------------------|


  S  E     E     E     E  E   Q    T  T  
----------------------------------------|
--L-12br--------------------------------|
----------13br--11br--11--9--11----9----|
-------------------------------------11-|
----------------------------------------|
----------------------------------------|


   T  T  T  T  T  T  T T  T T   T Q      T  T  T  T  T  T  T  T  T  T  T  T  T  
----------------------------------------19-12-19-12----18-12----19-12-19-12----|
----------------------------------------------------17-------17-------------17-|
-------------------------------------------------------------------------------|
--14-11----11------------------------------------------------------------------|
--------14----14-11-10-9----9s-11-9~-------------------------------------------|
-------------------------12----------------------------------------------------|


                                                            W  
   T  T  T  T  T  T  T  T  T  S  S  S  E    E   S  S  S  S  T  
--18-12----17-12-17-12----15-12-------15b---L--15-14-14-------|
--------17-------------17-------15-12-------------------15----|
-----------------------------------------------------------14-|
--------------------------------------------------------------|
--------------------------------------------------------------|
--------------------------------------------------------------|


  S S. T E    S  S  S  S  Q      E.   
-------------------15-19-19b~----L---|
----------------15-------------------|
--L-L--L-L--/14----------------------|
-------------------------------------|
-------------------------------------|
-------------------------------------|


  S  S  T T  S  S  S  S  S  S  Q.       S     
--L-19b-----19b---19-17-15----15b------15pbr-|
---------------------------15----------------|
---------------------------------------------|
---------------------------------------------|
---------------------------------------------|
---------------------------------------------|


   S  S.T  E   E   E   Q.      T  T  
--14-14-L-10--10--12-------------12-|
----------------------15b-----------|
-------------------------------9----|
------------------------------------|
------------------------------------|
------------------------------------|


   T  T T  T  T  T  T  T T  T  T T T T T T T T T T T T T T S S S S  
----------------10---------------7---------------------------------|
---------------------------------------------8---------------------|
--12-11-9-11-12----12-11-9-11-12---9-8-7-8-9-------------7---------|
-----------------------------------------------9-8-7-8-9---9-8-7-5-|
-------------------------------------------------------------------|
-------------------------------------------------------------------|


  S S  T T S  S  S  T  E  T S S S  S  S  E    
--------------------------------------------||
--------------------------------------------||
--------------------------------------------||
--7-7~-L-L-7--------------------9-10-12-12--||
-------------10-12-14~-L--L-L-L-------------||
--------------------------------------------||




Duration Legend
---------------
W - whole
H - half
Q - quarter
E - 8th
S - 16th
T - 32nd
X - 64th
. - note dotted
|-n-|  - n-tuplets


Tablature Legend
----------------
L - tied note
x - dead note
g - grace note
(n) - ghost note
> - accentuded note
NH - natural harmonic
AH - artificial harmonic
TH - tapped harmonic
SH - semi harmonic
PH - pitch harmonic
h - hammer on
p - pull off
b - bend
br - bendRelease
pb - preBend
pbr - preBendRelease
brb - bendReleaseBend
\n/ - tremolo bar dip
\n - tremolo bar dive
-/n - tremolo bar Release up
/n\ - tremolo bar inverted dip
/n - tremolo bar return
-\n - tremolo bar Release down
S - shift slide
s - legato slide
/ -  slide into from below or out of upwards
\ -  slide into from above or out of downwards
~ - vibrato
W - wide vibrato
tr - trill
TP - tremolo picking
T - tapping
S - slap
P - pop
< - fade in
^ - brush up
v - brush down
Search For Light chords by Eduardo Ardanuy