Song name
# A B C D E F G H I J K L M N O P Q R S T U V W X Y Z

Eduardo Botello - Sad Magic tab

This song was made by yours truly Eduardo Plz RATE FOR MORE SONGS!

|-------      |                       |
|             | |    | |---| |---     |
|------- |----| |    | |   | |  | |---| |--|
|        |    | |    | |---| |    |   | |  |
|------- |----| |----| |   | |    |---| |--|



E|--------------------------------------------------------------------------|
B|-----------------------------------------------------15-14----------------|
G|------------------17v-----------------------15-14-------------------------|
D|--0-14v-0-15v--0--------14-15-17--14-15-14--------------------------------|
A|--------------------------------------------------------------------------|
E|---------------------------------------------------------------------------

E|----------------------------------|
B|-17-15-14-------------------------|              
G|----------17-15-14----------------|
D|-------------------17-15----------|
A|-------------------------17-15-14-|
E|----------------------------------|

E|-----------------------------------------------------|
B|-----------------------------------------------------|
G|-----------------------------------------------------|
D|---------------12-x4-14-12-10-9----------------------|
A|-14-x4--12-x4--10----12-10-8--7----------------------|
E|-12-----10-------------------------------------------|
Tap to rate this tab
# A B C D E F G H I J K L M N O P Q R S T U V W X Y Z