Song name
# A B C D E F G H I J K L M N O P Q R S T U V W X Y Z

Eduardo Costa - Pagode Em Brasilia tab

E-0-7-0---0-5-0-4---------------------------------------------------------|
B-0-9-0-7-0-7-0-5---------------------------------------------------------|
G-------8-----------------------------------------------------------------|
D-------------------------------------------------------------------------|
A-------------------------------------------------------------------------|
E-------------------------------------------------------------------------|x2


E-0-7-0-9--11-0-12--------------------------------------------------------|
B-0-9-0-10-12-0-9---------------------------------------------------------|
G-------------------------------------------------------------------------|
D-------------------------------------------------------------------------|
A-------------------------------------------------------------------------|
E-------------------------------------------------------------------------|


verse 1 chords: E,B,A
Tap to rate this tab
 
# A B C D E F G H I J K L M N O P Q R S T U V W X Y Z