Guitaretab - guitar tabs
Song name
# A B C D E F G H I J K L M N O P Q R S T U V W X Y Z

Edvard Grieg - Solveigs Song tab

-------------------------------------------------------------------------------
			     SOLVEIGS SONG - Edvard H. Grieg
-------------------------------------------------------------------------------
Tabbed by: BoBzombIE16
Email: guitarzombie16 @yahoo.com

Tuning: Standard (EAD GBE)

e|---------------------------------------------------5-----------------------|
B|---------------------------------------------------5-----------------------|
G|-----------7--9-10-10-9-9--------------------------5-----------------------|
D|---7--9-10----------------10-7--7-10-10-9-9--------7-----------------------|
A|-7------------------------------------------11-7---7-----------------------|
E|---------------------------------------------------5-----------------------|

e|-----------------------------------------------------------5---------------|
B|-----------------------------------------------------------5---------------|
G|-----------7--9-10-9h10-9-9--------------------------------5---------------|
D|---77-9-10------------------10-7--7-10-9h10-9-9------------7---------------|
A|-7----------------------------------------------11-11------7---------------|
E|-------------------------------------------------------7---5---------------|
[ Tab from: http://www.guitaretab.com/e/edvard-grieg/110546.html ]
e|---------------------------------------------------------------------------|
B|---------------------------------------------------------------------------|
G|----------------9p8--7-------------------9---------------------------------|
D|--------9-10-7-----9---10-7--9h10-9-9-7------------------------------------|
A|-7-7-11--------------------------------------------------------------------|
E|---------------------------------------------------------------------------|

e|---------------------------------------------------------------------------|
B|---------------------------------------------------------------------------|
G|---------------9-9-8-----7-------------------------------------------------|
D|--------9-10-7-------9-9---10-7--9-8-8h9p8--7----7h9p7---------------------|
A|-7-7-11---------------------------------------11---------------------------|
E|---------------------------------------------------------------------------|

That was the verse part and the most easily recognizable section of the piece. 
The -basic- guitar chording for this is: Am G C Am E

| /  slide up
| \  slide down
| h  hammer-on
| p  pull-off
| ~  vibrato
| +  harmonic
| x  Mute note
===============================================================================
Related for Solveigs Song tab