Guitaretab - guitar tabs
Song name
# A B C D E F G H I J K L M N O P Q R S T U V W X Y Z

Edvard Grieg - In The Hall Of The Mountain King tab

Classical Rock
Edvard Grieg  In the hall of the mountain King


  Em              F#      F     Em               G
E---------------|-------------|----------------|-----------|
B---------------|-------------|----------------|-----------|
G---------------|-------------|----------------|-----------|
D---------------|-------------|--------------2-|-0-------0-|
A-------0-2---2-|-1---1-0---0-|------0-2---2---|---2---2---|
E-0-2-3-----3---|---2-----1---|-0-2-3----3-----|-----3-----|

  Em              F#      F     Em               B7
E---------------|-------------|----------------|---------|
B---------------|-------------|----------------|---------|
G---------------|-------------|----------------|---------|
D---------------|-------------|--------------2-|---------|
A-------0-2---2-|-1---1-0---0-|------0-2---2---|-2-0-----|
E-0-2-3-----3---|---2-----1---|-0-2-3----3-----|-----3-2-|

  Em              F#      F     Em               G
E---------------|-------------|----------------|-----------|
B---------------|-------------|----------------|-----------|
G---------------|-------------|----------------|-----------|
D---------------|-------------|--------------2-|-0-------0-|
A-------0-2---2-|-1---1-0---0-|------0-2---2---|---2---2---|
E-0-2-3-----3---|---2-----1---|-0-2-3----3-----|-----3-----|
[ Tab from: http://www.guitaretab.com/e/edvard-grieg/166297.html ]
  Em              F#      F     Em               B7
E---------------|-------------|----------------|---------|
B---------------|-------------|----------------|---------|
G---------------|-------------|----------------|---------|
D---------------|-------------|--------------2-|---------|
A-------0-2---2-|-1---1-0---0-|------0-2---2---|-2-0-----|
E-0-2-3-----3---|---2-----1---|-0-2-3----3-----|-----3-2-|

  Em              F#      F     Em               G
E---------------|-------------|-----------------|-----------|
B---------------|-------------|---------------5-|-3-------3-|
G-------2-4---4-|-3---3-2---2-|-------2-4---4---|---4---4---|
D-2-4-5-----5---|---4-----3---|-2-4-5-----5-----|-----5-----|
A---------------|-------------|-----------------|-----------|
E---------------|-------------|-----------------|-----------|

  Em              F#      F     Em               G
E---------------|-------------|-----------------|---------|
B---------------|-------------|---------------5-|---------|
G-------2-4---4-|-3---3-2---2-|-------2-4---4---|-4-2-----|
D-2-4-5-----5---|---4-----3---|-2-4-5-----5-----|-----5-4-|
A---------------|-------------|-----------------|---------|
E---------------|-------------|-----------------|---------|

  Em              F#      F     Em               G
E---------------|-------------|-----------------|-----------|
B---------------|-------------|---------------5-|-3-------3-|
G-------2-4---4-|-3---3-2---2-|-------2-4---4---|---4---4---|
D-2-4-5-----5---|---4-----3---|-2-4-5-----5-----|-----5-----|
A---------------|-------------|-----------------|-----------|
E---------------|-------------|-----------------|-----------|

  Em              F#      F     Em               G
E---------------|-------------|-----------------|---------|
B---------------|-------------|---------------5-|---------|
G-------2-4---4-|-3---3-2---2-|-------2-4---4---|-4-2-----|
D-2-4-5-----5---|---4-----3---|-2-4-5-----5-----|-----5-4-|
A---------------|-------------|-----------------|---------|
E---------------|-------------|-----------------|---------|
Related for In The Hall Of The Mountain King tab