Song name
# A B C D E F G H I J K L M N O P Q R S T U V W X Y Z

Edvard Grieg - In The Hall Of The Mountain King tab

In The Hall Of The Mountain King Peer Gynt.

Standard tuning.

4/4 time.  Start slow and quiet, gradually get faster and louder throughout.


||------------------|------------------|------------------|------------------|
||------------------|------------------|------------------|------------------|
||------------------|------------------|------------------|------------------|
||------------------|------------------|---------------2--|-0-------0--------|
||-------0-2---2----|-1---1---0---0----|-------0-2---2----|---2---2----------|
||-0-2-3-----3------|---2-------1------|-0-2-3-----3------|-----3------------|


|------------------|------------------|---------------0--|------------------|
|------------------|------------------|------------------|-3-------3--------|
|-------2-4---4----|-3---3---2---2----|-------2-4---4----|---4-0-4----------|
|-2-4-5-----5------|---4-------3------|-2-4-5-----5---2--|-0-------0--------|
|-------0-2---2----|-1---1---0---0----|-------0-2---2----|---2---2----------|
|-0-2-3-----3------|---2-------1------|-0-2-3-----3------|-----3------------|


|------------------|------------------|------------------|------------------|
|------------------|------------------|------------------|------------------|
|-4----------------|------------------|------------------|------------------|
|---------4---4----|-5---5---4---4----|---------4---4----|-5---5---4--------|
|-2-4-6-7---6------|---6-------6------|---4-6-7---6------|---6--------------|
|------------------|------------------|-7----------------|------------------|


|-----------------|--------------------|-----------------|-------------------|
|-0-2-4-5-7-4-7---|--8--4--8---7-4-7---|-0-2-4-5-7-4-7---|--8--4--8---7------|
|-----------------|--------------------|-----------------|-------------------|
|-----------------|--------------------|-----------------|-------------------|
|-2-4-6-7-9-6-9---|-10--6-10---9-6-9---|-2-4-6-7-9-6-9---|-10--6-10---9---9\-|
|-----------------|--------------------|-----------------|-------------------|

|------------------|------------------|---------------0--|------------------|
|------------------|------------------|------------------|-3-------3--------|
|------------------|------------------|-------2-4---4----|---4-0-4----------|
|-2----------------|------------------|-2-4-5-----5---2--|-0-------0--------|
|-------0-2---2----|-1---1---0---0----|-------0-2---2----|---2---2----------|
|-0-2-3-----3------|---2-------1------|-0-2-3-----3------|-----3------------|


|------------------|------------------|---------------0--|-------0----------||
|------------------|------------------|------------------|-0---0------------||
|------------------|------------------|-----0-2-4-0-4----|---0--------------||
|-2----------------|------------------|-2-4-2---0--------|-0-------0--------||
|-------0-2---2----|-1---1---0---0----|-------------3----|-2---0------------||
|-0-2-3-----3------|---2-------1------|-0----------------|---------3---2----||


||------------------|------------------|---------------0--|------------------|
||------------------|------------------|------------------|-3-0---0-3--------|
||-----0-2-4p0-4----|-3---3---2---2----|-----0-2-4p0-4----|-----0------------|
||-2-4--------------|---4-------3------|-2-4---------2----|-----0-------0----|
||-------------2----|-----1-------0----|-----2------------|------------------|
||-0-------0--------|-0-------0--------|-0-------0--------|-3-------3--------|


|------------------------|-------------------------|---------------------12-|
|---------10-12----12----|-11----11----10----10----|---------10-12----12----|
|-9-11-12-------12-------|----11----------10-------|-9-11-12-------12-------|
|-------9-----------9----|--------8-----------7----|-------9-----------9----|
|------------------------|-------------------------|------------------------|
|-0-----------0----------|--0-----------0----------|-0-----------0----------|


|-10----------10-------|---------2---2---|-3---3---2---2---|---------4---4---|
|----12----12----------|---2-4-5---4-----|---4-------4-----|---2-4-5---2-----|
|-------12-------------|-4---------------|-----------------|-4---------------|
|----------------------|-----4-------4---|-----5-------4---|-----4-------4---|
|-10----10----10---10\-|-2-------2-------|---------2-------|-2-------2-------|
|----------------------|-----------------|-3---------------|-----------------|


|---------2---2----|-3---3---2--------|---------2---2----|-4---4---2---2----|
|---2-4-5---4------|---4-----4--------|---2-4-5---4-4----|---4-4-----4-4----|
|-4----------------|-----4---4--------|-4---4-------4----|-----5-------4----|
|-----4-------4----|-----5-------4----|-----4-------4----|-----6-------4----|
|-2-------2--------|---------2--------|-2-------2--------|---------2--------|
|------------------|-3----------------|------------------|-4----------------|

                                 >       >
|---------2---2----|-4---4-------7----|-12-----------------------|
|---2-4-5---4-4----|---4-4---7---7----|-12-------10-12----12-----|
|-4---4-------4----|-----5-------8----|--9-11-12-------10--------|
|-----4-------4----|-----6-------7----|--9-----------------9-----|
|-2-------2--------|-------------9----|-10-----------------------|
|------------------|-4-------7---7----|--0-----------0-----------|


|-------------------------|---------------------12-|-10----------10----------|
|-11----11----10----10----|---------10-12----12----|----12----12-------------|
|----11----------10-------|-9-11-12-------12-------|-------12----------------|
|--------8-----------7----|-------9-----------9----|-------------------------|
|-------------------------|------------------------|-10----10----10----10\---|
|--0-----------0----------|-0-----------0----------|-------------------------|


|------------------|------------------|---------------0--|-------0-----0----||
|------------------|------------------|-------------0----|-0---0-------0----||
|-----0-2-4-0-4----|-3---3---2---2----|-----0-2-4-0------|---0---------0----||
|-2-4--------------|---4-------3------|-2-4---------2----|-----2---2--------||
|-----2-------2----|-----1-------0----|-----2------------|------------------||
|-0-------0--------|-0-------0--------|-0-------0--------|-0-------0--------||

       >                  >
||----12-----------|----12------------|-----------7---7-12-|-11---11s14-12----|
||----11-----------|----12------------|------8-10---8------|----7-------------|
||----12-----------|-----9------------|-9-11---------------|------------------|
||----11-----------|-----9------------|--------------------|------------------|
||-----------------|------------------|--------------------|------------------|
||-0---------------|-0----------------|-8---------7--------|--7---------12----|

      >                 >
|----12-----------|----12------------|--------------------|----------0------|
|----11-----------|----12------------|--0-0--0-0-0--0-0-0-|--0-0-0--0-------|
|----12-----------|-----9------------|-----------------9--|-8---8-11-9------|
|----11-----------|-----9------------|--------7-9----9----|---9-------------|
|-----------------|------------------|-7-9-10-----10------|-----------------|
|-0---------------|-0----------------|--------------------|-----------------|

      >                 >                  >   >   >     >   >   >   >
|----12-----------|----12------------|----12--12--12--|-12--12--12--12--|
|----11-----------|----11------------|----11--11--11--|-11--11--11--11--|
|----12-----------|----12------------|----12--12--12--|-12--12--12--12--|
|----11-----------|----11------------|----11--11--11--|-11--11--11--11--|
|-----------------|------------------|----------------|-----------------|
|-0---------------|-0----------------|-0--------------|-----------------|

                                           >
|-----------------|--------------12\-|----12----------||
|-----------------|------------------|----12----------||
|-----------------|------------------|-----9----------|| 
|-----------------|------------------|-----9----------||
|-----------------|------------------|----10----------||
|-----------------|------------------|-0---0----------||

Tap to rate this tab
# A B C D E F G H I J K L M N O P Q R S T U V W X Y Z