Song name
# A B C D E F G H I J K L M N O P Q R S T U V W X Y Z

Edvard Grieg - In The Hall Of The Mountain King tab

E|--------------------------------------------------------------------------|
B|--------------------------------------------------------------------------|
G|--------------------------------------------------------------------------|
D|------------------------------------------2-0-----0-----------------------|
A|-------0-2-2----1--1--0--0---------0-2-2------2-2-------------------------|
E|-0-2-3----3-------2----1-----0-2-3----3--------3--------------------------|

E|--------------------------------------------------------------------------|
B|--------------------------------------------------------------------------|
G|------------------0--0----------------------------0-0---------------------|
D|-----1-2-4-1-4-----1-----4-1-4--------1-2-4-1-4----1---4------------------|
A|-2-4------------------------------2-4-------------------------------------|
E|--------------------------------------------------------------------------|

E|------------------------------------------0-------------------------------|
B|-------------------------------------------3-0-0-3------------------------|
G|-----1-2-4-0-4---3-3--2-2------1-2-4-0-4------0---------------------------|
D|-2-4--------------4----3----2-4-------------------------------------------|
A|--------------------------------------------------------------------------|
E|--------------------------------------------------------------------------|

E|-------0-2-2--3-3--2-2---------0-2-2---3-3---2-2--2-----------------------|
B|-0-2-4----4----4----4----0-2-4----4-----4-----4---------------------------|
G|--------------------------------------------------------------------------|
D|--------------------------------------------------------------------------|
A|--------------------------------------------------------------------------|
E|--------------------------------------------------------------------------|

E|--------------------------------------------------------------------------|
B|--------------------------------------------------------------------------|
G|--------------------------------------------------------------------------|
D|--------------2---2-------------------------------------------------------|
A|-------0-2-2---2-2--------------------------------------------------------|
E|-0-2-3----3-----3---0-----------------------------------------------------|

     This is just something perfer, but you should repeat each section except for the last
Tap to rate this tab
 
# A B C D E F G H I J K L M N O P Q R S T U V W X Y Z