Song name
# A B C D E F G H I J K L M N O P Q R S T U V W X Y Z

Edvard Grieg - In The Hall Of The Mountain King tab

-----------------------------------------------------------------
In The Hall Of The Mountain King - Edvard Greig 
-----------------------------------------------------------------
Tabbed by: Me :)
Email:

Tuning: Just Normal


e|---------------------------------------------------------------|
B|---------------------------------------------------------------|
G|----------------------------------------------2-0-------0------|
D|----------0-2---2--1---1-0---0--------0-2---2-----2---2--------|
A|----0-2-3-----3------2-----1----0-2-3-----3---------3----------|
E|---------------------------------------------------------------|

e|------------0---0---0---------------------0---0-5-3-0---0-3----|
B|------0-1-3---1---1---4-0-4-3---3---0-1-3---1---------1--------|
G|----2-------------------------3---2----------------------------|
D|---------------------------------------------------------------|
A|---------------------------------------------------------------|
E|---------------------------------------------------------------|

e|---------------------------------------------------------------|
B|--------------0---0-1---1-0---0----------0---0-1---1-0---------|
G|--------1-2-----1-----1-----1-------1-2----1-----1-------------| <-
D|----2-4-------------------------2-4----------------------------| REPEAT 2x!
A|---------------------------------------------------------------| <-
E|---------------------------------------------------------------|

e|---------------------------------------------------------------|
B|---------------------------------------------------------------|
G|----------------------------------------------2-0--------------|
D|----------0-2---2--1---1-0---0--------0-2---2-----2---2--------|
A|----0-2-3-----3------2-----1----0-2-3-----3---------3---0------|
E|---------------------------------------------------------------|


Hope You Liked! Remember to rate!!!
Tap to rate this tab
 
# A B C D E F G H I J K L M N O P Q R S T U V W X Y Z