Song name
# A B C D E F G H I J K L M N O P Q R S T U V W X Y Z

Edvard Grieg - Morning From Peer Gynt tab

E|-1---------------|-----------------|-1---------------|-----------------|
B|--------3-----1--|-0------1-----3--|--------3-----1--|-0---1--3---1--3-|
G|-----------------|-----------------|-----------------|-----------------|
D|-----------------|-----------------|-----------------|-----------------|
A|-----------------|-----------------|-----------------|-----------------|
E|-----------------|-----------------|-----------------|-----------------|


E|-1------------1--|-3------------3--|-1---------------|-----------------|
B|--------3--------|--------3--------|--------3-----1--|-0---------------|
G|-----------------|-----------------|-----------------|-----------------|
D|-----------------|-----------------|-----------------|-----------------|
A|-----------------|-----------------|-----------------|-----------------|
E|-----------------|-----------------|-----------------|-----------------|
Tap to rate this tab
# A B C D E F G H I J K L M N O P Q R S T U V W X Y Z