Song name
# A B C D E F G H I J K L M N O P Q R S T U V W X Y Z

Edward Elgar - Pomp And Circumstance tab

-------------------------------------------------------------------------------
      "Pomp and Circumstance"(The Graduation Song)- by Sir Edward Elgar
-------------------------------------------------------------------------------
Tabbed by: Joseph Clarke
Email: Sinista_def@hotmail.com

Tuning: Standard

Note: I tabbed this directly from a recording of Elgar's "Pomp and circumstance March 
1 in D". It is the part commonly used in graduation ceremonies. Please feel free to ask 
questions/leave comments on this TAB. Thank you.

e|---------------------------------------------------------------------------|
B|-8---7-8-10-----------------------------------10---------------------------|
G|------------9---7---5---4-5-7---------------9------7---12--12-11-9---------|
D|-------------------------------7---9--11-12------------------------12------|
A|---------------------------------------------------------------------------|
E|---------------------------------------------------------------------------|

e|---------------------------------------------------------------------------|
B|-8---7-8-10-----------------------------------10---------------------------|
G|------------9---7---5---4-5-7---------------9------7---13---13-12-10-12----|
D|-------------------------------7---9--11-12--------------------------------|
A|---------------------------------------------------------------------------|
E|---------------------------------------------------------------------------|

e|---------------------------------------------------------------------------|
B|------------------------10-------------------------------------------------|
G|--12--11--10--9---11-12----------12--------5-4-2---------------------------|
D|----------------------------12---------5----------5------------------------|
A|---------------------------------------------------------------------------|
E|---------------------------------------------------------------------------|
       *Play everything above TWICE, then move onto the tabs below*

e|---------------------------------------------------------------------------|
B|-15---14-15-17-------------------------------------------12-17-------------|
G|-----------------16---14---12---11-12-14------11---13-14-------14----------|
D|-----------------------------------------14--------------------------------|
A|---------------------------------------------------------------------------|
E|---------------------------------------------------------------------------|

e|---------------------------------------------------------------------------|
B|-15---15-14-12-------------------------------------------------------------|
G|---------------14----------------------------------------------------------|
D|---------------------------------------------------------------------------|
A|---------------------------------------------------------------------------|
E|---------------------------------------------------------------------------|

e|---------------------------------------------------------------------------|
B|-15---14-15-17-------------------------------------------12-17-------------|
G|-----------------16---14---12---11-12-14------11---13-14-------14----------|
D|-----------------------------------------14--------------------------------|
A|---------------------------------------------------------------------------|
E|---------------------------------------------------------------------------|

e|--15---15-14-12-14-----------------------------------15---15-14-12---------|
B|-------------------15--14--13--12---14-15-17----15-----------------15------|
G|---------------------------------------------14----------------------------|
D|---------------------------------------------------------------------------|
A|---------------------------------------------------------------------------|
E|---------------------------------------------------------------------------|


===============================================================================
Tap to rate this tab
# A B C D E F G H I J K L M N O P Q R S T U V W X Y Z