Song name
# A B C D E F G H I J K L M N O P Q R S T U V W X Y Z

Edward Maya - Stereo Love tab

This is my simple interpretation of Stereo Love by Edward Maya ft. Vika Jigulina 
on Acoustic Guitar...

Capo : 4th fret        

CHORDS : Am  Fma7  C  Em ---> Play each chord in the following pattern:
---> Downstroke, Upstroke & Palm Mute, Downstroke & Palm Mute, Downstroke & Palm Mute. <---

--

 For Those Who Want To Know The Accordion Part:

E ||----------------------------------------------------------|
B ||---1-1-0-1-3-1-0-1-0-----------1-5-5-5-5-3-3-3-3-5-3-0-1--|
G ||--2---------------2-0-2-0---------------------------------|
D ||-----------------------3-2--------------------------------|
A ||----------------------------------------------------------|
E ||----------------------------------------------------------|

--

 The Intro (Basically Playing the Arpeggios of the 4 Basic Chords Above)

E ||------------|-----0------|------------|------------|
B ||-----1------|----1-1-----|-----1------|-----0------| 
G ||----2-2-----|---2---2----|----0-0-----|----0-0-----| 
D ||---2---2----|--3-----3---|---2---2----|---2---2----|
A ||--0-----0---|------------|--3-----3---|--2-----2---|
E ||------------|------------|------------|------------|
      ooooooh      ooooooh     When ya gonna stop breaking my heart......


E ||------------|-----0------|------------|------------|
B ||-----1------|----1-1-----|-----1------|-----0------| 
G ||----2-2-----|---2---2----|----0-0-----|----0-0-----| 
D ||---2---2----|--3-----3---|---2---2----|---2---2----|
A ||--0-----0---|------------|--3-----3---|--2-----2---|
E ||------------|------------|------------|------------|
       ....................     I don't wanna be another one.......


E ||------------|-----0------|------------|------------|
B ||-----1------|----1-1-----|-----1------|-----0------| 
G ||----2-2-----|---2---2----|----0-0-----|----0-0-----| 
D ||---2---2----|--3-----3---|---2---2----|---2---2----|
A ||--0-----0---|------------|--3-----3---|--2-----2---|
E ||------------|------------|------------|------------|
       .....................    Paying for the things I never done.....


E ||------------|-----0------|------------|------------|
B ||-----1------|----1-1-----|-----1------|-----0------| 
G ||----2-2-----|---2---2----|----0-0-----|----0-0-----| 
D ||---2---2----|--3-----3---|---2---2----|---2---2----|
A ||--0-----0---|------------|--3-----3---|--2-----2---|
E ||------------|------------|------------|------------|
       .................. Don't let go, don't let go, to my love.......

Am
Can I get to your soul? 
Am
Can you get to my thought? 
Am                    C     Em
Can we promise we won't let go?


Am
All the things that I need 
Am
All the things that you need 
Am                C     Em
You can make it feel so real


Am
'Cause you can't deny 
Am
You've blown my mind 
Am
When I touch your body 
C      Em
I feel I'm loosing control


Am
'Cause you can't deny 
Am
You've blown my mind 
Am
When I see you baby 
C      Em
I just don't wanna let go



E ||------------|-----0------|------------|------------|
B ||-----1------|----1-1-----|-----1------|-----0------| 
G ||----2-2-----|---2---2----|----0-0-----|----0-0-----| 
D ||---2---2----|--3-----3---|---2---2----|---2---2----|
A ||--0-----0---|------------|--3-----3---|--2-----2---|
E ||------------|------------|------------|------------|
                     I hate to see you cry Your smile is a beautiful lie...


E ||------------|-----0------|------------|------------|
B ||-----1------|----1-1-----|-----1------|-----0------| 
G ||----2-2-----|---2---2----|----0-0-----|----0-0-----| 
D ||---2---2----|--3-----3---|---2---2----|---2---2----|
A ||--0-----0---|------------|--3-----3---|--2-----2---|
E ||------------|------------|------------|------------|
       .................. I hate to see you cry My love is dying inside...


Am                  Fma7
I can fix all those lies
                C                       Em
Oh baby, baby I run, but I'm running to you 
                 Am                   Fma7
You won't see me cry, I'm hiding inside
               C                         Em
My heart is in pain, but I'm smiling for you


Am
Can I get to your soul? 
Am
Can you get to my thought? 
Am                    C     Em
Can we promise we won't let go?


Am
All the things that I need 
Am
All the things that you need 
Am                C     Em
You can make it feel so real


Am
'Cause you can't deny 
Am
You've blown my mind 
Am
When I touch your body 
C      Em
I feel I'm loosing control


Am
'Cause you can't deny 
Am
You've blown my mind 
Am
When I see you baby 
C      Em
I just don't wanna let go


E ||------------|-----0------|------------|------------|
B ||-----1------|----1-1-----|-----1------|-----0------| 
G ||----2-2-----|---2---2----|----0-0-----|----0-0-----| 
D ||---2---2----|--3-----3---|---2---2----|---2---2----|
A ||--0-----0---|------------|--3-----3---|--2-----2---|
E ||------------|------------|------------|------------|
                              When you're gonna stop breaking my heart?...


E ||------------|-----0------|------------|------------|
B ||-----1------|----1-1-----|-----1------|-----0------| 
G ||----2-2-----|---2---2----|----0-0-----|----0-0-----| 
D ||---2---2----|--3-----3---|---2---2----|---2---2----|
A ||--0-----0---|------------|--3-----3---|--2-----2---|
E ||------------|------------|------------|------------|
       .................. Don't let go, don't let go, to my love

E ||------------|-----0------|------------|------------|
B ||-----1------|----1-1-----|-----1------|-----0------| 
G ||----2-2-----|---2---2----|----0-0-----|----0-0-----| 
D ||---2---2----|--3-----3---|---2---2----|---2---2----|
A ||--0-----0---|------------|--3-----3---|--2-----2---|
E ||------------|------------|------------|------------|
                     I hate to see you cry Your smile is a beautiful lie...


E ||------------|-----0------|------------|------------|
B ||-----1------|----1-1-----|-----1------|-----0------| 
G ||----2-2-----|---2---2----|----0-0-----|----0-0-----| 
D ||---2---2----|--3-----3---|---2---2----|---2---2----|
A ||--0-----0---|------------|--3-----3---|--2-----2---|
E ||------------|------------|------------|------------|
       .................. I hate to see you cry My love is dying inside...

E ||------------|-----0------|------------|------------|
B ||-----1------|----1-1-----|-----1------|-----0------| 
G ||----2-2-----|---2---2----|----0-0-----|----0-0-----| 
D ||---2---2----|--3-----3---|---2---2----|---2---2----|
A ||--0-----0---|------------|--3-----3---|--2-----2---|
E ||------------|------------|------------|------------|
                     I hate to see you cry My love is dying inside...


E ||------------|-----0------|------------|------------|
B ||-----1------|----1-1-----|-----1------|-----0------| 
G ||----2-2-----|---2---2----|----0-0-----|----0-0-----| 
D ||---2---2----|--3-----3---|---2---2----|---2---2----|
A ||--0-----0---|------------|--3-----3---|--2-----2---|
E ||------------|------------|------------|------------|
       .................. I have a feeling inside My love is burning alive


Am                  Fma7
I can fix all those lies
                C                       Em
Oh baby, baby I run, but I'm running to you 
                 Am                   Fma7
You won't see me cry, I'm hiding inside
               C                         Em
My heart is in pain, but I'm smiling for you


Am                                    Fma7
Oh, baby, I'll try to make the things right 
                     C                     Em
I need you more than air when I'm not with you 
                    Am                     Fma7
Please don't ask me why, just kiss me this time 
            C                  Em
My only dream is about you and I


Ending (Slowly Pick):
E ||------------|-----0------|------------|------------0---|
B ||-----1------|----1-1-----|-----1------|-----0------0---| 
G ||----2-2-----|---2---2----|----0-0-----|----0-0-----0---| 
D ||---2---2----|--3-----3---|---2---2----|---2---2----2---|
A ||--0-----0---|------------|--3-----3---|--2-----2---2---|
E ||------------|------------|------------|------------0---|


As I said, this is my own interpretation...!
Thanks & Enjoy!
2012 - Mitch Clark.
Tap to rate this tab
# A B C D E F G H I J K L M N O P Q R S T U V W X Y Z