Song name
# A B C D E F G H I J K L M N O P Q R S T U V W X Y Z

Edward Sharpe And The Magnetic Zeros - Janglin tab

-------------------------------------------------------------------------------
	Janglin' (intro) - Edward Sharpe & The Magnetic Zeros
-------------------------------------------------------------------------------
Tabbed by:Evan Harris
Email:

Tuning:Standard

e|---------------------------------------------------------------------------|
B|----------------10----------------10---------------------------------------|
G|------------11--------------11---------------------------------------------|
D|-------12--------------11--------------9-----------------------------------|
A|---------------------------------------------------------------------------|
E|---------------------------------------------------------------------------|

e|-----------9---------------------------------------------------------------|
B|------12------12---10------------------------------------------------------|
G|------------------------11---9---------------------------------------------|
D|---------------------------------------------------------------------------|
A|---------------------------------------------------------------------------|
E|---------------------------------------------------------------------------|

e|---------------------------------------------------------------------------|
B|----------------10----------------10---------------------------------------|
G|------------11--------------11---------------------------------------------|
D|-------12--------------11--------------9-----------------------------------|
A|---------------------------------------------------------------------------|
E|---------------------------------------------------------------------------|

e|-----------9---------------------------------------------------------------|
B|------12------12---10------------------------------------------------------|
G|------------------------11---9---------------------------------------------|
D|---------------------------------------------------------------------------|
A|---------------------------------------------------------------------------|
E|---------------------------------------------------------------------------|
Tap to rate this tab
 
# A B C D E F G H I J K L M N O P Q R S T U V W X Y Z