Song name
# A B C D E F G H I J K L M N O P Q R S T U V W X Y Z

Edward Sharpe And The Magnetic Zeros - Man On Fire tab

-----------------------------------------------------------------------------
                             MAN ON FIRE - Ed Sharpe
----------------------------------------------------------------------------

This is only as much of the song as I can work out (so far). I'm hoping it'll
be a good starting point so that someone better/more experienced can tab out
the rest. TheJohnCoyne's chords really helped so thank you!

It's fairly easy once you get the picking, the left hand is just chord patterns

Tuning:Standard - Capo 4

Intro:
    G
e|-----------------------------------------------------|
B|-----------------------------------------------------|
G|------------0----------------------------------------|
D|-----0--------0--------------------------------------|   6x
A|-----------------------------------------------------|
E|--3-----3--------------------------------------------|


Verse:
     C         G                   C         G
e|-------------3---------3-------------------3---------3--------|
B|----------------3---------3-------------------3---------3-----|
G|---------0---------0---------0---------0---------0---------0--|
D|------2-----------------------------2-------------------------|
A|---3-----------------------------3----------------------------|
E|--------------------------------------------------------------|

     C         D                   C         G
e|-------------2---------2-------------------3---------3--------|
B|----------------3---------3-------------------3---------3-----|
G|---------0---------2---------2---------0---------0---------0--|
D|------2-----------------------------2-------------------------|
A|---3-----------------------------3----------------------------|
E|--------------------------------------------------------------|

REPEAT

Then:
             Em
e|------------------------------------------------------------------------|
B|------------------------0---------------0--------------0--------------0-|
G|----------------------0---------------0--------------0--------------0---|
D|------------------2---------------2--------------2--------------2-------|
A|---------------2---------------2--------------2--------------2----------|
E|-3--2--0----0---------------0--------------0--------------0-------------|

That's about as far as I got. Any comments and corrections are welcome :)
Tap to rate this tab
# A B C D E F G H I J K L M N O P Q R S T U V W X Y Z