Song name
# A B C D E F G H I J K L M N O P Q R S T U V W X Y Z

Edward Sharpe And The Magnetic Zeros - Om Nashi Me tab

-------------------------------------------------------------------------------
                             Om Nashi Me - Edward Sharpe & the Magnetic Zeros
-------------------------------------------------------------------------------
Tabbed by: This Guy


Love edward sharpe! hope this helps someone out

Tuning: Standard

Piano Part  (do each chord however many times)

          C                          F                      Am
e|----0--------------1-------------0--------------------------------------------|
B|----1--------------1-------------1--------------------------------------------|
G|----0--------------2-------------2--------------------------------------------|
D|----2--------------3-------------2--------------------------------------------|
A|----3--------------x-------------0--------------------------------------------|
E|----x--------------x-------------x--------------------------------------------|


La la la la la part  (second half might be partly off - just play around with it)


e|------------------------------------------------------------------------------|
B|------------------------------------------------------------------------------|
G|------------------------------------------------------------------------------|
D|------------3-2----------2--------------------3-2-----------------------------|
A|---3----3-5----------3-5-----------3----3--5----------3--5-3------------------|
E|------------------------------------------------------------------------------|
Tap to rate this tab
 
# A B C D E F G H I J K L M N O P Q R S T U V W X Y Z