Song name
# A B C D E F G H I J K L M N O P Q R S T U V W X Y Z

Edward Sharpe And The Magnetic Zeros - When Youre Young tab

-------------------------------------------------------------------------------
                             When You're Young - Edward Sharpe & the Magnetic Zeros
-------------------------------------------------------------------------------
Tabbed by:This Guy

Tuning: standard

I only have the intro (and maybe part of the chorus that I'll put below, but I'm not 
even sure about it).
If you have any idea for the chorus and verse, please steal this and put it up! I love 
the song, big Edward Sharpe fan, and it's hard enough to find the song let alone tab. I'm 
pretty sure it's in E major also.

Intro (mandolin)

e|-4-5-7----4-5-7-9-7--4-5-7---4-5-7-9-7-4-2---4------2--4------0---0----------|
B|-------------------------------------------------2---------2------2----------|
G|-----------------------------------------------------------------------------|
D|-----------------------------------------------------------------------------|
A|-----------------------------------------------------------------------------|
E|-----------------------------------------------------------------------------|



Chorus (maybe?)

       C#              A               G#            F#
e|------------5--------4--------2--------------------------------------------------|
B|--6---------5--------4--------2--------------------------------------------------|
G|--6---------6--------5--------3--------------------------------------------------|
D|--6---------7--------6--------4--------------------------------------------------|
A|--4---------7--------6--------4--------------------------------------------------|
E|------------5--------4---------2-------------------------------------------------|



Please figure out this song, I'm pretty new to tabbing.
Tap to rate this tab
# A B C D E F G H I J K L M N O P Q R S T U V W X Y Z