Song name
# A B C D E F G H I J K L M N O P Q R S T U V W X Y Z

Edwin Mccain - Beautiful Life Acoustic tab

----------------------------------------------------------------------------
		       BEAUTIFUL LIFE - Edwin McCain
----------------------------------------------------------------------------

Tabbed by: Blodkajal
Email: cryforlovee@hotmail.com

Tuning: eb Bb Gb Db Ab Eb "half step down". Push the "flat" button down once on your
electric tuner or if you know how to do it by ear, that's great. :)

A few words about the tab: I did'n manage to put together the whole chorus, that is
the chord progression. But i'll include the tablature of those chords so it's just
to try out different combinations... Listen to the song for rythm. 

Intro and 1st verse:

eb|-00000000-----0----0-------000000000000--------------------------------|
Bb|-33333333-----3----3-------333333333333--------------------------------|
Gb|-22222222-----0----0-------XXXXXXXXXXXX--------------------------------|
Db|-00000000-----0----0-------222222222222--------------------------------|
Ab|-00000000-----X----X-------000000000000--------------------------------|
Eb|-XXXXXXXX-----2----3-------XXXXXXXXXXXX--------------------------------|

On the intro, play 2 times and strum all chords without p.m. When the verse begins he
uses "appregiated" p.m (if there is a thing called that). Play until the chorus comes

Chorus:

These are the chords used in the chorus, can't figure out what order to do them. Just
know that they are used.

eb|---0----0----0----0----0----0------------------------------------------|
Bb|---3----3----3----3----3----3------------------------------------------|
Gb|---2----2----2----0----0----2------------------------------------------|
Db|---0----0----0----0----0----2------------------------------------------|
Bb|--------0----X----X----X----0------------------------------------------|
Eb|-------------X----3----2----3------------------------------------------|

Play intro, only once. Then the verse.

Then the bridge comes, same as chorus but another progression, and then he appregiates
the chords when playing the intro after the chorus.
The 3rd verse is also appregiated. Aswell as the 3rd chorus.

Outro: Play 7 times.

eb|-00000000-----0----0-------000000000000--------------------------------|
Bb|-33333333-----3----3-------333333333333--------------------------------|
Gb|-22222222-----0----0-------XXXXXXXXXXXX--------------------------------|
Db|-00000000-----0----0-------222222222222--------------------------------|
Ab|-00000000-----X----X-------000000000000--------------------------------|
Eb|-XXXXXXXX-----2----3-------XXXXXXXXXXXX--------------------------------|
Tap to rate this tab
 
# A B C D E F G H I J K L M N O P Q R S T U V W X Y Z