Guitaretab - guitar tabs
Song name
# A B C D E F G H I J K L M N O P Q R S T U V W X Y Z

Edwyn Collins - Never Met A Girl Like You Before tab

Edwyn Collins - Never Met A Girl Like You Before
-------------------------------------------------------------------------------
Tabbed by: Penno d:.>
Email: alexpenno@aol.com

This is Just the Intro, I'll get the full song as soon as i can, but Im really
busy at the moment, so if u need it urgently, money is welcome.

I came across this song by accident, when i went wrong playing you give love a
bad name by bon jovi, and thought i'd tab it as a few notes were wrong in the
other one.

Tuning:Normal
[ Tab from: http://www.guitaretab.com/e/edwyn-collins/121238.html ]
e|--------------------------------------------------------------------------|
B|-------------------------------------11--8--------------------------------|
G|-------8--10b12r10--8-------------8---------------------------------------|
D|---10------------------10--8--10------------------------------------------|
A|--------------------------------------------------------------------------|
E|--------------------------------------------------------------------------|


e|--------------------------------------------------------------------------|
B|--------------------------------------------------------------------------|
G|-------8--10b12r10--8-------------8---------------------------------------|
D|---10------------------10--8--10-----8--10--------------------------------|
A|--------------------------------------------------------------------------|
E|--------------------------------------------------------------------------|




Related for Never Met A Girl Like You Before tab