Song name
# A B C D E F G H I J K L M N O P Q R S T U V W X Y Z

Edwyn Collins - Never Met A Girl Like You Before tab

                Edwyn Collins - Never met a girl like you before

tabbed by:Robb McQuiston
e-mail:robbmcq@hotmail.co.uk

verse - play after every line of vocals in the verse

e----------------------------------------|
B----------------------------------------|
G----------------------------------------|
D----------------------------------------|
A---3---1----------------1---------------|
E-----------4---3-----1-----3------------|

Chorus -play twice

e--------------------------------------------|
B----------------------------------11---8----|
G-----8--10-10b12r10--8---------8------------|
D--10--------------------10--10--------------|
A--------------------------------------------|
E--------------------------------------------|

e--------------------------------------------|
B--------------------------------------------|
G-----8--10-10b12r10--8---------7------------|
D-10--------------------10--10----8--10------|
A--------------------------------------------|
E--------------------------------------------|

 /   slide up
 \   slide down
 h   hammer-on
 p   pull-off
 ~   vibrato
 +   harmonic
 x   Mute note
 b   Bend
 pb  Pre-bend
 br  Bend release
 pbr Pre-bend release
 brb Bend release bend
Tap to rate this tab
# A B C D E F G H I J K L M N O P Q R S T U V W X Y Z