Edwyn Collins - Never Met A Girl Like You Before tab

Hi i've tabbed out the verse and chorus which are already on the site and i've
decided to add the solo so enjoy :)

e-------6-8---10-11---13--------------------------------|
B--4--------------------------4----6--4--6b8--6brp4-----|
G-5-------------------------5------------------------5--|
D-------------------------------------------------------|
A-------------------------------------------------------|
E-------------------------------------------------------|

e------------------------------------------------|
B--4-------------3-------4-----------------------|
G-----5-3-----3----3--5--------------------------|
D----------5-------------------------------------|
A------------------------------------------------|
E------------------------------------------------|

| /   slide up
| \   slide down
| h   hammer-on
| p   pull-off
| ~   vibrato
| +   harmonic
| x   Mute note
| b   Bend
| pb  Pre-bend
| br  Bend release
Tap to rate this tab
 
# A B C D E F G H I J K L M N O P Q R S T U V W X Y Z