Song name
# A B C D E F G H I J K L M N O P Q R S T U V W X Y Z

Eek-a-mouse - Ganja Smuggling Live tab

Okay, folks here's the intro part:

NORMAL TUNING EADGBE / EADGHE

Guitar 1:

      S  S  S  S  S  S E   S  S  S  S  S  S E
E||-----16-16-16----------16-16-16-16----------|
B||--------------17-------------------17-------|
G||*----------------18-------------------18----|
D||*-------------------------------------------|
A||--------------------------------------------|
E||--------------------------------------------|


   S  E   S  E   E   S Q    E  S
--14-14--14-----------------------||----||
------------16------14------------||----||
----------------16---------------*||----||
---------------------------------*||----||
----------------------------------||----||
----------------------------------||----||

Guitar 2:

      C#m                             B                 C#m    C#m
      E    E  E   E  E   E  E   E     E   E  E   E  E   E  E   E
E||-------12-----12-----12-----12--|-----11-----11-----12-----12---||-----||
B||-------14-----14-----14-----14--|-----12-----12-----14-----14---||-----||
G||*------13-----13-----13-----13--|-----11-----11-----13-----13--*||-----||
D||*------11-----11-----11-----11--|------9------9-----11-----11--*||-----||
A||--------------------------------|-------------------------------||-----||
E||--------------------------------|-------------------------------||-----||


Duration Legend
---------------
W - whole
H - half
Q - quarter
E - 8th
S - 16th
T - 32nd
X - 64th

The rest of the song is just C#m-C#m-B-C#m. Ask your friend to sing it for you.
that's it, i hope you liked my tab.. any corrections etc. mail 'em to 
I will never respond to your mail nor will I ever read it but you can still send it if you wish. 
<3 <3 <3 luvv
special thanks to the goatse man

http://www.eeksperience.com/
Tap to rate this tab
# A B C D E F G H I J K L M N O P Q R S T U V W X Y Z