Song name
# A B C D E F G H I J K L M N O P Q R S T U V W X Y Z

Eels - Guest List tab

GUEST LIST
MR E aka Marc Oliver Everret

Lovely song for when youre feeling down...



INTRO

e|--------------------0---------------------------------------------------|
B|---1-------------1-----1--------------1---------------------------------|
G|--------0-----2-----------2----------------0-----2----------------------|
D|-3---0-----2-----------------------3----0-----2-------------------------|
A|------------------------------------------------------------------------|
E|------------------------------------------------------------------------|

THE INTRO CAN BE PLAYED THROUGHOUT OR YOU CAN USE THE CHORDS





F          G       Am    
are you one of the beautiful people
is my name on the list 
wanna be of the beautiful people
wanna feel like i'm missed 


F       G        Am
hey you with the walkie talkie
i know my clothes are not right
i wish i had my own walkie talkie
that reached to god every night 


Am        G                 F
          everyone needs to be somebody
          
          G                 F(JUST LET RING)    
          everyone needs to find someone who cares



F           G           Am
but i don't know if you know what i mean
'cause i'm never on your list 


F        G          Am
are you one of the beautiful people
am i on the wrong track
sometimes it feels like i'm made of eggshell
and it feels like i'm gonna crack 



Am        G                 F
          everyone needs to be somebody
          
          G                 F(JUST LET RING) 
          everyone needs to find someone who cares



F           G           Am
but i don't know if you know what i mean
'cause i'm never on your list 
       i'm never on your list 



FINISHES WITH \/ ON THE LAST 'list'

e|--0--0--0---------------------------------------------------------------|
B|--1--0--1---------------------------------------------------------------|
G|--2--0--2---------------------------------------------------------------|
D|--2--0--2---------------------------------------------------------------|
A|--0--0--0---------------------------------------------------------------|
E|------------------------------------------------------------------------|

Tap to rate this tab
 
# A B C D E F G H I J K L M N O P Q R S T U V W X Y Z