Song name
# A B C D E F G H I J K L M N O P Q R S T U V W X Y Z

Eels - Prizefighter chords

Highlighted       Show chord diagrams
-------------------------------------------------------------------------------
			     PRIZEFIGHTER - Eels
-------------------------------------------------------------------------------
Tabbed by: xiempie
Email: xiempie@gmail.com

Tuning: Standard (EADGBe)


CAPO ON 2ND FRET
Iit's a very easy song, and fun to play.


      A                A
e|-----------------|---0-0-0--0-0-0---0-0-0--0-0-0---------|   
B|----2^-----------|---2-3-2--2-2-2---3-3-2--2-2-2---------|
G|----2^----Ooohh--|---2-2-2--2-2-2---2-2-2--2-2-2---------|
D|----2^-----------|---2-2-2--2-2-2---2-2-2--2-2-2----...--|
A|--0--------------|---------------------------------------|
E|-----------------|---------------------------------------|


"I'll break through..."
     D
e|---2-2--2h3-3-3-2---2-2--2h3-3-3-2---------|
B|---3-3--3---3-3-3---3-3--3---3-3-3---------|
G|---2-2--2---2-2-2---2-2--2---2-2-2---------|
D|---0-0--0---0-0-0---0-0--0---0-0-0----...--|
A|-------------------------------------------|
E|-------------------------------------------|



I'll try to tab the solo later.

Tap to rate this tab
 
# A B C D E F G H I J K L M N O P Q R S T U V W X Y Z