Song name
# A B C D E F G H I J K L M N O P Q R S T U V W X Y Z

Eels - Lone Wolf tab

My first tab
Transcribed by Tom Shepard


|-------------------|------------------------|
|-------------------|------------------------|
|-------------------|------------------------|
|-----7-7-----------|-----7-7----------------|
|-9-9-5-5-5-5-7-7-7-|-9-9-5-5-5-5-5-5-7-7-7-7|
|-7-7-----3-3-5-5-5-|-7-7-----3-3-3-3-5-5-5-5|

|-------------------|
|-------------------|
|-------------------|              x2
|-----7-7-----------|
|-9-9-5-5-5-5-7-7-7-|
|-7-7-----3-3-5-5-5-|

|---------------------------------|
|---------------------------------|
|---------------------------------|
|---------------------------------|
|-9-9-5-5-5-5-4-4-2-2-2-2-4-4-4-4-|
|-7-7-7-7-3-3-2-2-0-0-0-0-2-2-2-2-|

a very simple song, it shouldn't be too hard
at all to follow along with the track to this.
And make sure you check the track for the correct timing.
Tap to rate this tab
 
# A B C D E F G H I J K L M N O P Q R S T U V W X Y Z