Song name
# A B C D E F G H I J K L M N O P Q R S T U V W X Y Z

Eels - Woman Driving Man Sleeping tab

Corrected tab for:
The Eels
Woman Driving, Man Sleeping

tabbed by: Daniel von Prezlauer Berg

IMPORTANT: Like many eels songs, you need play at the
7th fret, but don't use a capo* (see note below).
Use a 12 string.


Em (Am shape)  G (C shape)      A5 (D shape) 
                               0:24
e------------|----------------|----------------------|
b------8-8-8-|--8-----8--8--8-|----10-10-10-10-10-10-|
G------9-9-9-|--7--7--7--7--7-|--9--9--9--9--9--9--9-|
D----9-9-9-9-|--9--9--9--9--9-|--7--7--7--7--7--7--7-|
A--7-7-7-7-7-|-10-10-10-10-10-|----------------------|
E------------|----------------|----------------------|
            8x

Cmaj7* (F shape)        D (G shape) D/E         D/F         D/G
 0:27                   1:01 (Chorus middle part)
e--------0--0--0--0--0-|-----------|-----------|-----------|-----------|
b--------0--0--0--0--0-|-----7-7-7-|-----7-7-7-|-----7-7-7-|-----7-7-7-|
G-----9--9--9--9--9--9-|-----7-7-7-|-----7-7-7-|-----7-7-7-|-----7-7-7-|
D-10-10-10-10-10-10-10-|-----7-7-7-|---7-7-7-7-|---7-7-7-7-|---7-7-7-7-|
A-10-10-10-10-10-10-10-|---9-9-----|-7---------|-9---------|-10--------|
E--8--8--8--8--8--8--8-|-10--------|-----------|-----------|-----------|

Tap to rate this tab
 
# A B C D E F G H I J K L M N O P Q R S T U V W X Y Z