Song name
# A B C D E F G H I J K L M N O P Q R S T U V W X Y Z

Eels - Souljacker Part 1 tab

Artist: The Eels
Album:  Souljacker
Song:   Souljacker Pt 1
Tabbed by Dermy McAreavy

So far the tabs for this have been accurate enough,
alas, they fail to realise that it's all chords, not a riff.
So with furthur ado (ado ado ado ado) here's my version of this
nice little tune

e|------------------|
B|------------------|
G|------------------|
D|2--22--4--5-------|
A|0--22--4--5-------|
E|0--00--2--3-------|  This is all palm muted for the verse

e|------------------|
B|------------------|
G|------------------|
D|2--22--4--5-------|
A|2--22--4--5-------|
E|0--00--2--3-------| No palm muting and gritty distortion after "OH YEAH!!"

e|------------------|
B|------------------|
G|------------------|
D|77--9--10---------|
A|77--9--10---------|
E|55--7--8----------| For the "Sisters, Brothers" part

And if you listen to the song, you'll see how these all fit together
like a wonderful jigsaw. There's a solo that's pretty good, but too
wild for me to tab. So be happy and enjoy.
Tap to rate this tab
# A B C D E F G H I J K L M N O P Q R S T U V W X Y Z