Song name
# A B C D E F G H I J K L M N O P Q R S T U V W X Y Z

Eels - Open My Present chords

Highlighted       Show chord diagrams
Eels 

             Open My Present


Wonderful glorious
Tempo 114
gwendal.mollo@orange.fr

Riff A :
        Dm   
e|-----------------------------|
B|-----------------------------|
G|-----------------------------|
D|-----------------------------|
A|--------10h12---10--8--10----|
E|---10------------------------| x4


Riff B :
        G
e|-----------------------------|
B|-----------------------------|
G|-----------------------------|
D|-----------------------------|
A|---10------------------------|
E|---------10---10-13-10-------|

Riff C :
  Dm
e|-----------------------------|
B|-----------------------------|
G|-----------------------------|
D|-----------------------------|
A|---5-7-8-7----5--------------|
E|----------------5------------|

Chords : 
Dm : x57765
G (Verse)  : 355433
G ( chorus): x.10.12.12.11.10
A : x02220
F : 133211
B : x24442
D : xx0232


 * * * * * * * * * * * *  * *


Intro : Riff A x4
Verse : Riff A x4, Riff B x2, Riff A x2


Verse 1 :
Dm
I wanna open my present
Dm
look at it rapped up in little big bones
G
back up tight just waiting for me,
Dm
rip it open and set it free.

F            B       D
  Relieve my state I just can't wait 

Riff A x1

Verse 2 :
I wanna open my present
well I'm a good boy, I behave myself
I've been patient and waiting so long
but waiting you longer it just feels wrong.

F              B       D
  I know it's great I just can't wait.

Chorus : 
G
  It's right in front of me,
Dm             Riff C
  I can't stop thinking about it
G
  what's the harm i ain't letting me,
A  
  go no longer, living without it.

                        [solo]
Riff A x4
Riff B
Riff A x2
F              B       D
Riff A


Verse 3 :
I wanna open my present
Well I've been working hard for too  long
Say my prayers and getting my sleep,
then require now making up pip,

F              B         D
   I know it's great, I just can't wait.

Chorus

Verse 1

F              B        D
    Relieve my state I just can't wait 

Riff A
I wanna open my present
Riff A
Tap to rate this tab
# A B C D E F G H I J K L M N O P Q R S T U V W X Y Z