Song name
# A B C D E F G H I J K L M N O P Q R S T U V W X Y Z

Eels - The Longing tab

-------------------------------------------------------------------------------
                             Eels - The Longing
-------------------------------------------------------------------------------
Album : Hombre Lobo (2009)
Tempo : 106 (3/4)
E-mail: gwendal.mollo@orange.fr
Tabbed by: newg

There are two guitar, one normal, the other with a capo on 12.


Intro Gt1 :
E |-------|-------|----------------------|-------|-------|-------|-------|
B |-------|-------|--6-----------6--8----|--5----|-------|-------|-------|
G |--7----|--6----|----------------------|-------|--7----|--6----|--5----|
D |-------|-------|----------------------|-------|-------|-------|-------|
A |-------|-------|----------------------|-------|-------|-------|-------|
E |-------|-------|----------------------|-------|-------|-------|-------|


-------||
-------||
--4----||
-------||
-------||
-------||

Verses :
    Dm            A/C#          F             C/E            Dm
E |-------------|-------------|-------------|-------------|-------------|
B |-----6-------|-----5-------|-----10------|-----8-------|-----6-------|
G |--------7----|--------6----|--------10---|--------9----|--------7----|
D |-------------|-------------|-------------|-------------|-------------|
A |--5----------|--4----------|--8----------|--7----------|--5----------|
E |-------------|-------------|-------------|-------------|-------------|

 A/C#           C             G/B
-------------|-------------|-------------||
-----5-------|-----5-------|-----3-------||
--------6----|--------5----|--------4----||
-------------|-------------|-------------||
--4----------|--3----------|--2----------||
-------------|-------------|-------------||


Chorus :
    A#            C             Am             Dm
E ||------------|-------------|-------------|-----1------|
B ||----3-------|-----5-------|-----1-------|--------3---|
G ||o------3----|--------5----|--------2----|-----------o|
D ||o-----------|-------------|-------------|--0--------o|
A ||-1----------|--3----------|--0----------|------------|
E ||------------|-------------|-------------|------------| x2

   G#            A#
|-------------|-------------||
|-----4-------|-----3-------||
|--------5----|--------3----||
|-------------|-------------||
|-------------|--1----------||
|--4----------|-------------||


Gtr 2 Capo 12
    Dm            C#m           F             Em            Dm
E |-----1--1----|-------------|-------------|-------------|-----1--1----|
B |-----3--3----|-----2--2----|-----1--1----|-----1--1----|-----3--3----|
G |-----2--2----|-----2--2----|-----2--2----|-----0--0----|-----2--2----|
D |--0----------|-----2-------|--3----------|--2----------|--0----------|
A |-------------|--4----------|-------------|-------------|-------------|
E |-------------|-------------|-------------|-------------|-------------|

C#m            C             Bm
-------------|-------------|-------------||
-----2--2----|-----1--1----|-----0--0----||
-----2--2----|-----0--0----|-----0--0----||
-----2-------|-----2--2----|-----0--0----||
--4----------|--3----------|--2----------||
-------------|-------------|-------------||



Chords :
Dm  : x57765
C#m : x4665x
F   : x8.10.10.10x
C   : x3555x
Bm  : x2443x

Chords Guitar capo 12 :
Dm  : xx0231x
A/C#: x4222x
F   : xx321x
C/E : xx201x
C   : x3201x
G/B : x2000x
Tap to rate this tab
 
# A B C D E F G H I J K L M N O P Q R S T U V W X Y Z