Song name
# A B C D E F G H I J K L M N O P Q R S T U V W X Y Z

Eels - On The Ropes tab

-------------------------------------------------------------------------------
                             Eels - On The Ropes
-------------------------------------------------------------------------------
Album : Wonderful Glorious(2012)
Tempo : 92
E-mail: gwendal.mollo@orange.fr
Tabbed by: newg

Intro / Verses
     A                       E 
E |-----------------------------------0-------------|
B |-----------2--------0--------------------0-------|
G |--------------------------1----------------------|
D |-------------------------------------------------|
A |--0----------------------------------------------|
E |-------------------------------------------------|

 D                        G 
--------------------------------------3-------------|
-----------3--------2-----0-------------------------|
--------------------------0-------------------------|
--0--------------------------------------------0h---|
----------------------------------------------------|
----------------------------------------------------|

Am7                   Am/7 
-------------------------------------------------|
-----------1--------------------------1----------|
-----------------0-----------0--2--------2-------|
--2--------------------3-------------------------|
-------------------------------------------------|
-------------------------------------------------|

  A                                                  Variation of the riff
----------------------------------------------------| ----------------|
--------2-------------------------------------------| ------3---------|
--------------------2--------------2----------------| 2h-4-----4-----2|
-----------------------------2h-4-----4-----2-------| ----------------|
--0-------------------------------------------------| ----------------|
----------------------------------------------------| ----------------|


Chorus (he use different positions in live video, but this sound good)
  F#m               A                D                         C#m
|--------2-------|-----------0----|--------------2----------|-------------|
|-----------2----|----------------|--------3--------3-------|---------5---|
|----------------|--------2-------|-----2-------------------|-----------6-|
|----------------|-----2----------|--0----------------------|--------6----|
|-----4----------|--0-------------|-------------------------|--4----------|
|--2-------------|----------------|-------------------------|-------------|
 
 Bm               E
----------------|----------------||
-----------3----|----------------||
--------4-------|--------1-------||
-----4----------|-----2----------||
--2-------------|----------------||
----------------|--0-------------||

intro   : A E D G Am7 Am/7 A
verse   : A E D G Am7 Am/7 A x2
Chorus  : F#m A D C#m Bm E
verse 2 : A E D G Am7 Am/7 A x2
Chorus  : F#m A D C#m Bm E
intro   : A E D G Am7 Am/7 A x2
Chorus  : F#m A D C#m Bm E
verse   : A E D G Am7 Am/7 A x2
Outro   : A E D G Am7 Am/7 A x4
Tap to rate this tab
# A B C D E F G H I J K L M N O P Q R S T U V W X Y Z