Song name
# A B C D E F G H I J K L M N O P Q R S T U V W X Y Z

Eels - Birdgirl On A Cell Phone chords

Highlighted       Show chord diagrams
-------------------------------------------------------------------------------
                             Eels - Birdgirl On A Cell Phone
-------------------------------------------------------------------------------
Album : B-Sides and Rarities (1996-2003)
Tempo : 105
E-mail: gwendal.mollo@orange.fr
Tabbed by: newg

(Can be play with a capo on 5 and transcript -5 for simple chords.)

Intro :
    F            C                A#    C 
E |----------------------------|----------------||
B |--------------1-------------|-----3--1-------||
G |-----------2--------2-------|--3--------0----||
D |--------3-------------------|----------------||
A |-----3----------------------|----------------||
E |--1-------------------------|----------------||  x2

F       C        A#     C
She has eyes disability blue, 
  F      C        A#       C
a German dog and strict curfew
       F         C           A#        F  
And if one man's cage is another man's stage
     F                C             A#  F  
Then she's turned the script to another page
        D#                    A#                    C
And she doesn't really give a damn what you have to say

F C A# C 

F           C           A#            C
She makes a call on her friend's cell phone
    F        C           A#              C
The operator answers and says you're not alone
       F         C           A#             F 
And if one man's ceiling is another's dance floor
     F             C           A#         F 
Then she'll be the one running to the sea shore
D#                 A#               C
Trying to tell the seagulls this is home

F C A# C  x4

       F         C           A#        F  
And if one man's cage is another man's stage
     F             C         A#       F  
Then she'll be the one wiser than her age
D#                 A#             C
Trying to get the message to your ear

F C A# F  x2 
D# A# C

F C A# C (Fade out)
Tap to rate this tab
# A B C D E F G H I J K L M N O P Q R S T U V W X Y Z