Song name
# A B C D E F G H I J K L M N O P Q R S T U V W X Y Z

Eels - Waltz Of The Naked Clowns tab

-------------------------------------------------------------------------------
                             Eels - Waltz of the Naked Clowns
-------------------------------------------------------------------------------
Album : B-Sides and Rarities (1996-2003)
Tempo : 149 (3/4) 
E-mail: gwendal.mollo@orange.fr
Tabbed by: newg

Part A 
     C       C             Dm             Dm
E ||------|-------------|-------------|------||
B ||-5----|--------5----|--6-----5----|--3---||
G ||------|--5--7-------|-------------|------||
D ||------|-------------|-------------|------||
A ||------|-------------|-------------|------||
E ||------|-------------|-------------|------||     x4


Part B 

|-12---------|-------|--10---------|------------||
|-------13---|--10---|--------12---|------------||
|------------|-------|-------------|--12--------||
|------------|-------|-------------|------------||
|------------|-------|-------------|------------||
|------------|-------|-------------|------------||  x3


Bass part A :

G ||------------|-------------|-------|------||
D ||------------|-------------|-------|------||
A ||-3----------|--------3----|--5----|------||
E ||------------|--3----------|-------|--5---||   x4

Bass part B :

|------------|-------------|-------------|------------||
|3-----------|--3-----3----|--5----------|--5---------||
|------------|-------------|-------------|------------||
|------------|-------------|-------------|------------||   x3
Tap to rate this tab
 
# A B C D E F G H I J K L M N O P Q R S T U V W X Y Z