Song name
# A B C D E F G H I J K L M N O P Q R S T U V W X Y Z

Eels - Youre My Friend tab

-------------------------------------------------------------------------------
                              Eels - You're My Friend
-------------------------------------------------------------------------------
Album : Wonderful Glorious (2012)
Tempo : 78
E-mail: gwendal.mollo@orange.fr
Tabbed by: newg

intro : 
    C         B                   Em      G         D5
E |----------------------------|----------------------------|
B |-----------------4-----4----|----------------------------|
G |--------5--------4-----4----|--------0--------4-----7----|
D |-----5--------4-----4-------|--------2--------5----------|
A |--3--------2----------------|-----2--------5-----5-------|
E |----------------------------|--0--------3----------------|

    C         B7                 Em        G        B5
e |----------------------------|----------------------------|
B |--------5-------------------|----------------------------|
G |--------5--------2----------|--------0--------4-----0----|
D |-----5--------1--4--4--1----|--------2--------5-----0----|
A |--3-------------------------|-----2--------5-----2-------|
E |-----------2----------------|--0--------3----------------|

Verses : 
    C         B                   Em      G         
E |----------------------------|----------------------------|
B |-----------------4-----4----|----------------------------|
G |--------5--------4-----4----|--------0--------4----------|
D |-----5--------4-----4-------|--------2--------5----------|
A |--3--------2----------------|-----2--------5------5------|
E |----------------------------|--0--------3----------------|

    C         B7                 Em        G        
e |----------------------------|----------------------------|
B |--------5-------------------|----------------------------|
G |--------5--------2----------|--------0--------4----------|
D |-----5--------1--4--4--1----|--------2--------5----------|
A |--3-------------------------|-----2--------5-----5-------|
E |-----------2----------------|--0--------3----------------|


Chorus :
    F#m                          B
E |----------------------------|----------------------------|
B |----------------------------|--------4--------4-----4----|
G |--------2--------2----------|--------4--------4-----4----|
D |--------4--------4----------|-----4--------4-----4-------|
A |-----4--------4-------------|--2--------2----------------|
E |--2--------2--------2-------|----------------------------|

   Em
e |----------------------------|----------------------------|
B |----------------------------|----------------------------|
G |--------0--------0----------|-------2----------2---------|
D |--------2--------2----------|-------3----------3---------|
A |-----2--------2-----2-------|----3----------3-----3------|
E |-0--------0-----------0-----|-1----------1---------------|

     B                           B
E |----------------------------|----------------------------|
B |--------4--------4-----4----|--------4--------4-----4----|
G |--------4--------4-----4----|--------4--------4-----4----|
D |-----4--------4-----4-------|-----4--------4-----4-------|
A |--2--------2----------------|--2--------2----------------|
E |----------------------------|----------------------------|
Tap to rate this tab
# A B C D E F G H I J K L M N O P Q R S T U V W X Y Z