Song name
# A B C D E F G H I J K L M N O P Q R S T U V W X Y Z

Eels - A Swallow In The Sun tab

-------------------------------------------------------------------------------
                             SONG NAME - Band Name
-------------------------------------------------------------------------------
Tabbed by:Mac
E-mail:

Tuning: EADGBe


Intro/Verse
e|-----7---7---7----7---7---7---7---7---7---7---7---7------------------------|
B|-------8---8--------8---8-------8---8-------7---7--------------------------|
G|---7------------7-----------7-----------7----------------------------------|
D|---------------------------------------------------------------------------|
A|---------------------------------------------------------------------------|
E|---------------------------------------------------------------------------|

e|-----7---7---7---7---7---7---7---7---7---7---7---7-------------------------|
B|-------8---8-------8---8-------8---8-------8---8---------------------------|
G|---9-----------9-----------9-----------9-----------------------------------|
D|---------------------------------------------------------------------------|
A|---------------------------------------------------------------------------|
E|---------------------------------------------------------------------------|

e|-----7---7---7---7---7---7---7---7---7---7---7---7------|--------7---------|------7---7-----|
B|-------7---7-------7---7-------7---7-------7---7--------|----7-----7-------|----7---7---7---|
G|---7-----------7-----------7-----------7----------------|--7---7-----7-----|--7-------------|
D|--------------------------------------------------------|------------------|----------------|
A|--------------------------------------------------------|------------------|----------------|
E|--------------------------------------------------------|-Can also play as-|------Or--------|

e|-----8---8---8---8---8---8---8---8---8---8---8---8------|--------8---------|------8---8-----|
B|-------8---8-------8---8-------8---8-------8---8--------|----8-----8-------|----8---8---8---|
G|---9-----------9-----------9-----------9----------------|--9---9-----9-----|--9-------------|
D|--------------------------------------------------------|------------------|----------------|
A|--------------------------------------------------------|------------------|----------------|
E|--------------------------------------------------------|-Can also play as-|------Or--------|


Chorus
e|-----7---7---7---7---7---7---7---7---7---7---7---7-------------------------|
B|-------8---8-------8---8-------7---7-------7---7---------------------------|
G|---9-----------9-----------8-----------8-----------------------------------|
D|---------------------------------------------------------------------------|
A|---------------------------------------------------------------------------|
E|---------------------------------------------------------------------------|

e|-----7---7---7---7---7---7---5---5---5---5---5---5---5---5---5---5---5---5-|
B|-------8---8-------8---8-------5---5-------5---5-------5---5-------5---5---|
G|---9-----------9-----------6-----------6-----------6-----------6-----------|
D|---------------------------------------------------------------------------|
A|---------------------------------------------------------------------------|
E|---------------------------------------------------------------------------|

e|-----8---8---8---8---8---8---7---7---7---7---7---7-------------------------|
B|-------8---8-------8---8-------8---8-------8---8---------------------------|
G|---9-----------9-----------7-----------7-----------------------------------|
D|---------------------------------------------------------------------------|
A|---------------------------------------------------------------------------|
E|---------------------------------------------------------------------------|

e|-----5---5---5---5---5---5---5---5---5---5---5---5-------------------------|
B|-------7---7-------7---7-------7---7-------7---7---------------------------|
G|---7-----------7-----------7-----------7-----------------------------------|
D|---------------------------------------------------------------------------|
A|---------------------------------------------------------------------------|
E|---------------------------------------------------------------------------|


Repeat where required


Listen for variations in picking
e|------X---X-----------------X------|
B|----X---X---X-----------X-----X----|
G|--X--------------And--X---X-----X--|
D|-----------------------------------|
A|-----------------------------------|
E|-----------------------------------|


************************************

| /   slide up
| \   slide down
| h   hammer-on
| p   pull-off
| ~   vibrato
| +   harmonic
| x   Mute note
| b   Bend
| pb  Pre-bend
| br  Bend release
| pbr Pre-bend release
| brb Bend release bend

************************************
Tap to rate this tab
# A B C D E F G H I J K L M N O P Q R S T U V W X Y Z