Song name
# A B C D E F G H I J K L M N O P Q R S T U V W X Y Z

Eels - Monster And Me tab

Intro
e/------9-----10----------|
b/----10-10--10-10--------|
g/---9------11------------|
d/------------------------|
a/------------------------|
e/------------------------|

sometimes
e/------9------10---------|
b/----10-10--- -10--------|
g/---9------11------------|
d/------------------------|
a/------------------------|
e/------------------------|

chorus=Am+D
e/---0----                 e/-----2---------|
b/---1----                 b/-----3---------|
g/---2---- x4(down strum)  g/-----2---------| X4(down strum,on last bit of
d/---2----                 d/-----0---------|    chorus play once then play
a/---0----                 a/-----x---------|    intro again)
e/---x----                 e/-----x---------|
Tap to rate this tab
# A B C D E F G H I J K L M N O P Q R S T U V W X Y Z